  0
SECTION
  2
HEADER
  9
$ACADVER
  1
AC1014
  9
$ACADMAINTVER
 70
     0
  9
$DWGCODEPAGE
  3
ANSI_1252
  9
$INSBASE
 10
0.0
 20
0.0
 30
0.0
  9
$EXTMIN
 10
-15.266167
 20
-370.67975
 30
0.0
  9
$EXTMAX
 10
623.983083
 20
52.46025
 30
0.0
  9
$LIMMIN
 10
0.0
 20
0.0
  9
$LIMMAX
 10
12.0
 20
9.0
  9
$ORTHOMODE
 70
     0
  9
$REGENMODE
 70
     1
  9
$FILLMODE
 70
     1
  9
$QTEXTMODE
 70
     0
  9
$MIRRTEXT
 70
     1
  9
$DRAGMODE
 70
     2
  9
$LTSCALE
 40
1.0
  9
$OSMODE
 70
     0
  9
$ATTMODE
 70
     1
  9
$TEXTSIZE
 40
0.2
  9
$TRACEWID
 40
0.05
  9
$TEXTSTYLE
  7
STANDARD
  9
$CLAYER
  8
0
  9
$CELTYPE
  6
CONTINUOUS
  9
$CECOLOR
 62
   256
  9
$CELTSCALE
 40
1.0
  9
$DELOBJ
 70
     1
  9
$DISPSILH
 70
     0
  9
$DIMSCALE
 40
1.0
  9
$DIMASZ
 40
0.18
  9
$DIMEXO
 40
0.0625
  9
$DIMDLI
 40
0.38
  9
$DIMRND
 40
0.0
  9
$DIMDLE
 40
0.0
  9
$DIMEXE
 40
0.18
  9
$DIMTP
 40
0.0
  9
$DIMTM
 40
0.0
  9
$DIMTXT
 40
0.18
  9
$DIMCEN
 40
0.09
  9
$DIMTSZ
 40
0.0
  9
$DIMTOL
 70
     0
  9
$DIMLIM
 70
     0
  9
$DIMTIH
 70
     1
  9
$DIMTOH
 70
     1
  9
$DIMSE1
 70
     0
  9
$DIMSE2
 70
     0
  9
$DIMTAD
 70
     0
  9
$DIMZIN
 70
     0
  9
$DIMBLK
  1

  9
$DIMASO
 70
     1
  9
$DIMSHO
 70
     1
  9
$DIMPOST
  1

  9
$DIMAPOST
  1

  9
$DIMALT
 70
     0
  9
$DIMALTD
 70
     2
  9
$DIMALTF
 40
25.4
  9
$DIMLFAC
 40
1.0
  9
$DIMTOFL
 70
     0
  9
$DIMTVP
 40
0.0
  9
$DIMTIX
 70
     0
  9
$DIMSOXD
 70
     0
  9
$DIMSAH
 70
     0
  9
$DIMBLK1
  1

  9
$DIMBLK2
  1

  9
$DIMSTYLE
  2
STANDARD
  9
$DIMCLRD
 70
     0
  9
$DIMCLRE
 70
     0
  9
$DIMCLRT
 70
     0
  9
$DIMTFAC
 40
1.0
  9
$DIMGAP
 40
0.09
  9
$DIMJUST
 70
     0
  9
$DIMSD1
 70
     0
  9
$DIMSD2
 70
     0
  9
$DIMTOLJ
 70
     1
  9
$DIMTZIN
 70
     0
  9
$DIMALTZ
 70
     0
  9
$DIMALTTZ
 70
     0
  9
$DIMFIT
 70
     3
  9
$DIMUPT
 70
     0
  9
$DIMUNIT
 70
     2
  9
$DIMDEC
 70
     4
  9
$DIMTDEC
 70
     4
  9
$DIMALTU
 70
     2
  9
$DIMALTTD
 70
     2
  9
$DIMTXSTY
  7
STANDARD
  9
$DIMAUNIT
 70
     0
  9
$LUNITS
 70
     2
  9
$LUPREC
 70
     4
  9
$SKETCHINC
 40
0.1
  9
$FILLETRAD
 40
0.0
  9
$AUNITS
 70
     0
  9
$AUPREC
 70
     0
  9
$MENU
  1
acad
  9
$ELEVATION
 40
0.0
  9
$PELEVATION
 40
0.0
  9
$THICKNESS
 40
0.0
  9
$LIMCHECK
 70
     0
  9
$BLIPMODE
 70
     1
  9
$CHAMFERA
 40
0.0
  9
$CHAMFERB
 40
0.0
  9
$CHAMFERC
 40
0.0
  9
$CHAMFERD
 40
0.0
  9
$SKPOLY
 70
     0
  9
$TDCREATE
 40
2451803.574050926
  9
$TDUPDATE
 40
2451803.574050926
  9
$TDINDWG
 40
0.0000000000
  9
$TDUSRTIMER
 40
0.0000000000
  9
$USRTIMER
 70
     1
  9
$ANGBASE
 50
0.0
  9
$ANGDIR
 70
     0
  9
$PDMODE
 70
     0
  9
$PDSIZE
 40
0.0
  9
$PLINEWID
 40
0.0
  9
$COORDS
 70
     0
  9
$SPLFRAME
 70
     0
  9
$SPLINETYPE
 70
     6
  9
$SPLINESEGS
 70
    10
  9
$ATTDIA
 70
     0
  9
$ATTREQ
 70
     1
  9
$HANDLING
 70
     1
  9
$HANDSEED
  5
505
  9
$SURFTAB1
 70
     6
  9
$SURFTAB2
 70
     6
  9
$SURFTYPE
 70
     6
  9
$SURFU
 70
     6
  9
$SURFV
 70
     6
  9
$UCSNAME
  2

  9
$UCSORG
 10
0.0
 20
0.0
 30
0.0
  9
$UCSXDIR
 10
1.0
 20
0.0
 30
0.0
  9
$UCSYDIR
 10
0.0
 20
1.0
 30
0.0
  9
$PUCSNAME
  2

  9
$PUCSORG
 10
0.0
 20
0.0
 30
0.0
  9
$PUCSXDIR
 10
1.0
 20
0.0
 30
0.0
  9
$PUCSYDIR
 10
0.0
 20
1.0
 30
0.0
  9
$USERI1
 70
     0
  9
$USERI2
 70
     0
  9
$USERI3
 70
     0
  9
$USERI4
 70
     0
  9
$USERI5
 70
     0
  9
$USERR1
 40
0.0
  9
$USERR2
 40
0.0
  9
$USERR3
 40
0.0
  9
$USERR4
 40
0.0
  9
$USERR5
 40
0.0
  9
$WORLDVIEW
 70
     1
  9
$SHADEDGE
 70
     3
  9
$SHADEDIF
 70
    70
  9
$TILEMODE
 70
     1
  9
$MAXACTVP
 70
    16
  9
$PINSBASE
 10
0.0
 20
0.0
 30
0.0
  9
$PLIMCHECK
 70
     0
  9
$PEXTMIN
 10
-1.000000E+20
 20
-1.000000E+20
 30
-1.000000E+20
  9
$PEXTMAX
 10
-1.000000E+20
 20
-1.000000E+20
 30
-1.000000E+20
  9
$PLIMMIN
 10
0.0
 20
0.0
  9
$PLIMMAX
 10
12.0
 20
9.0
  9
$UNITMODE
 70
     0
  9
$VISRETAIN
 70
     0
  9
$PLINEGEN
 70
     1
  9
$PSLTSCALE
 70
     0
  9
$TREEDEPTH
 70
  3020
  9
$PICKSTYLE
 70
     1
  9
$CMLSTYLE
  2
STANDARD
  9
$CMLJUST
 70
     0
  9
$CMLSCALE
 40
1.0
  9
$PROXYGRAPHICS
 70
     0
  9
$MEASUREMENT
 70
     0
  0
ENDSEC
  0
SECTION
  2
CLASSES
  0
CLASS
  1
LWPOLYLINE
  2
AcDbPolyline
  3
"AutoCAD"
 90
        0
280
     0
281
     1
  0
CLASS
  1
IMAGE
  2
AcDbRasterImage
  3
ISM
 90
      127
280
     0
281
     1
  0
CLASS
  1
OLE2FRAME
  2
AcDbOle2Frame
  3
""
 90
        0
280
     0
281
     1
  0
CLASS
  1
HATCH
  2
AcDbHatch
  3
"ACAD_SEDONA"
 90
        0
280
     0
281
     1
  0
CLASS
  1
DICTIONARYVAR
  2
AcDbDictionaryVar
  3
"AutoCAD"
 90
        0
280
     0
281
     0
  0
CLASS
  1
RASTERVARIABLES
  2
AcDbRasterVariables
  3
ISM
 90
        0
280
     0
281
     0
  0
CLASS
  1
IMAGEDEF
  2
AcDbRasterImageDef
  3
ISM
 90
        0
280
     0
281
     0
  0
CLASS
  1
IMAGEDEF_REACTOR
  2
AcDbRasterImageDefReactor
  3
ISM
 90
        1
280
     0
281
     0
  0
CLASS
  1
IDBUFFER
  2
AcDbIdBuffer
  3
"Acad"
 90
        0
280
     0
281
     0
  0
CLASS
  1
SPATIAL_FILTER
  2
AcDbSpatialFilter
  3
"Acad"
 90
        0
280
     0
281
     0
  0
CLASS
  1
XRECORD
  2
AcDbXrecord
  3
"<Built In>"
 90
        0
280
     0
281
     0
  0
CLASS
  1
SORTENTSTABLE
  2
AcDbSortentsTable
  3
"AutoCAD"
 90
        0
280
     0
281
     0
  0
CLASS
  1
LAYER_INDEX
  2
AcDbLayerIndex
  3
"Acad"
 90
        0
280
     0
281
     0
  0
CLASS
  1
SPATIAL_INDEX
  2
AcDbSpatialIndex
  3
"Acad"
 90
        0
280
     0
281
     0
  0
CLASS
  1
OBJECT_PTR
  2
CAseDLPNTableRecord
  3
"ASE-LPNTableRecord"
 90
        1
280
     0
281
     0
  0
ENDSEC
  0
SECTION
  2
TABLES
  0
TABLE
  2
VPORT
  5
7
100
AcDbSymbolTable
 70
     1
  0
VPORT
  5
504
100
AcDbSymbolTableRecord
100
AcDbViewportTableRecord
  2
*ACTIVE
 70
     0
 10
0.0
 20
0.0
 11
1.0
 21
1.0
 12
0.0
 22
0.0
 13
0.0
 23
0.0
 14
0.0
 24
0.0
 15
0.0
 25
0.0
 16
0.0
 26
0.0
 36
1.0
 17
274.816387
 27
-157.559792
 37
0.0
 40
457.641583
 41
1.541667
 42
50.0
 43
0.0
 44
0.0
 50
0.0
 51
0.0
 71
     0
 72
   100
 73
     1
 74
     0
 75
     0
 76
     0
 77
     0
 78
     0
  0
ENDTAB
  0
TABLE
  2
LTYPE
  5
4
100
AcDbSymbolTable
 70
     9
  0
LTYPE
  5
11
100
AcDbSymbolTableRecord
100
AcDbLinetypeTableRecord
  2
BYBLOCK
 70
     0
  3

 72
    65
 73
     0
 40
0.0
  0
LTYPE
  5
12
100
AcDbSymbolTableRecord
100
AcDbLinetypeTableRecord
  2
BYLAYER
 70
     0
  3

 72
    65
 73
     0
 40
0.0
  0
LTYPE
  5
13
100
AcDbSymbolTableRecord
100
AcDbLinetypeTableRecord
  2
CONTINUOUS
 70
     0
  3
Solid line
 72
    65
 73
     0
 40
0.0
  0
LTYPE
  5
22
100
AcDbSymbolTableRecord
100
AcDbLinetypeTableRecord
  2
DOT
 70
    64
  3
. . . . . . . . . . . . . . . . . . . . . . . . . . . . . . . . .
 72
    65
 73
     2
 40
0.25
 49
0.0
 74
     0
 49
-0.25
 74
     0
  0
LTYPE
  5
23
100
AcDbSymbolTableRecord
100
AcDbLinetypeTableRecord
  2
HIDDEN
 70
    64
  3
__ __ __ __ __ __ __ __ __ __ __ __ __ __ __ __ __ __ __ __ __ 
 72
    65
 73
     2
 40
0.375
 49
0.25
 74
     0
 49
-0.125
 74
     0
  0
LTYPE
  5
24
100
AcDbSymbolTableRecord
100
AcDbLinetypeTableRecord
  2
DASHED
 70
    64
  3
__ __ __ __ __ __ __ __ __ __ __ __ __ __ __ __ __ __ __ __ __
 72
    65
 73
     2
 40
0.75
 49
0.5
 74
     0
 49
-0.25
 74
     0
  0
LTYPE
  5
25
100
AcDbSymbolTableRecord
100
AcDbLinetypeTableRecord
  2
DASHDOT
 70
    64
  3
__ . __ . __ . __ . __ . __ . __ . __ . __ . __ . __ . __ . _
 72
    65
 73
     4
 40
1.0
 49
0.5
 74
     0
 49
-0.25
 74
     0
 49
0.0
 74
     0
 49
-0.25
 74
     0
  0
LTYPE
  5
26
100
AcDbSymbolTableRecord
100
AcDbLinetypeTableRecord
  2
DIVIDE
 70
    64
  3
____ . . ____ . . ____ . . ____ . . ____ . . ____ . . ____ . .
 72
    65
 73
     6
 40
1.25
 49
0.5
 74
     0
 49
-0.25
 74
     0
 49
0.0
 74
     0
 49
-0.25
 74
     0
 49
0.0
 74
     0
 49
-0.25
 74
     0
  0
LTYPE
  5
27
100
AcDbSymbolTableRecord
100
AcDbLinetypeTableRecord
  2
CENTER
 70
    64
  3
____ _ ____ _ ____ _ ____ _ ____ _ ____ _ ____ _ ____ _ ____ _
 72
    65
 73
     4
 40
2.0
 49
1.25
 74
     0
 49
-0.25
 74
     0
 49
0.25
 74
     0
 49
-0.25
 74
     0
  0
ENDTAB
  0
TABLE
  2
LAYER
  5
2
100
AcDbSymbolTable
 70
     3
  0
LAYER
  5
14
102
{ACAD_XDICTIONARY
360
5F205F5F5F5F205F
102
}
100
AcDbSymbolTableRecord
100
AcDbLayerTableRecord
  2
0
 70
     0
 62
     7
  6
CONTINUOUS
  0
LAYER
  5
2A
102
{ACAD_XDICTIONARY
360
5F205F5F5F5F205F
102
}
100
AcDbSymbolTableRecord
100
AcDbLayerTableRecord
  2
61
 70
    64
 62
     7
  6
CONTINUOUS
  0
LAYER
  5
58
102
{ACAD_XDICTIONARY
360
5F205F5F5F5F205F
102
}
100
AcDbSymbolTableRecord
100
AcDbLayerTableRecord
  2
1
 70
    64
 62
     7
  6
CONTINUOUS
  0
ENDTAB
  0
TABLE
  2
STYLE
  5
3
100
AcDbSymbolTable
 70
     4
  0
STYLE
  5
17
100
AcDbSymbolTableRecord
100
AcDbTextStyleTableRecord
  2
STANDARD
 70
     0
 40
0.0
 41
1.0
 50
0.0
 71
     0
 42
0.0
  3
txt
  4

  0
STYLE
  5
3B
100
AcDbSymbolTableRecord
100
AcDbTextStyleTableRecord
  2
MONOTXT
 70
     0
 40
0.2
 41
1.0
 50
0.0
 71
     0
 42
0.2
  3
MONOTXT
  4

  0
STYLE
  5
59
100
AcDbSymbolTableRecord
100
AcDbTextStyleTableRecord
  2
TXT
 70
     0
 40
0.2
 41
1.0
 50
0.0
 71
     0
 42
0.2
  3
TXT
  4

  0
STYLE
  5
6A
100
AcDbSymbolTableRecord
100
AcDbTextStyleTableRecord
  2
ROMANT
 70
     0
 40
0.2
 41
1.0
 50
0.0
 71
     0
 42
0.2
  3
ROMANT
  4

  0
ENDTAB
  0
TABLE
  2
VIEW
  5
5
100
AcDbSymbolTable
 70
     0
  0
ENDTAB
  0
TABLE
  2
UCS
  5
6
100
AcDbSymbolTable
 70
     0
  0
ENDTAB
  0
TABLE
  2
APPID
  5
8
100
AcDbSymbolTable
 70
     1
  0
APPID
  5
16
100
AcDbSymbolTableRecord
100
AcDbRegAppTableRecord
  2
ACAD
 70
     0
  0
ENDTAB
  0
TABLE
  2
DIMSTYLE
  5
9
100
AcDbSymbolTable
 70
     1
  0
DIMSTYLE
105
18
100
AcDbSymbolTableRecord
100
AcDbDimStyleTableRecord
  2
STANDARD
 70
     0
  3

  4

  5

  6

  7

 40
1.0
 41
0.18
 42
0.0625
 43
0.38
 44
0.18
 45
0.0
 46
0.0
 47
0.0
 48
0.0
140
0.18
141
0.09
142
0.0
143
25.4
144
1.0
145
0.0
146
1.0
147
0.09
 71
     0
 72
     0
 73
     1
 74
     1
 75
     0
 76
     0
 77
     0
 78
     0
170
     0
171
     2
172
     0
173
     0
174
     0
175
     0
176
     0
177
     0
178
     0
270
     2
271
     4
272
     4
273
     2
274
     2
340
17
275
     0
280
     0
281
     0
282
     0
283
     1
284
     0
285
     0
286
     0
287
     0
288
     0
  0
ENDTAB
  0
TABLE
  2
BLOCK_RECORD
  5
1
100
AcDbSymbolTable
 70
     1
  0
BLOCK_RECORD
  5
A
100
AcDbSymbolTableRecord
100
AcDbBlockTableRecord
  2
*MODEL_SPACE
  0
BLOCK_RECORD
  5
B
100
AcDbSymbolTableRecord
100
AcDbBlockTableRecord
  2
*PAPER_SPACE
  0
BLOCK_RECORD
  5
A5
102
{ACAD_XDICTIONARY
360
F09F022400000000
102
}
100
AcDbSymbolTableRecord
100
AcDbBlockTableRecord
  2
LDR
  0
ENDTAB
  0
ENDSEC
  0
SECTION
  2
BLOCKS
  0
BLOCK
  5
D
100
AcDbEntity
  8
0
100
AcDbBlockBegin
  2
*MODEL_SPACE
 70
     0
 10
0.0
 20
0.0
 30
0.0
  3
*MODEL_SPACE
  1

  0
ENDBLK
  5
E
100
AcDbEntity
  8
0
100
AcDbBlockEnd
  0
BLOCK
  5
F
100
AcDbEntity
 67
     1
  8
0
100
AcDbBlockBegin
  2
*PAPER_SPACE
 70
     0
 10
0.0
 20
0.0
 30
0.0
  3
*PAPER_SPACE
  1

  0
ENDBLK
  5
10
100
AcDbEntity
 67
     1
  8
0
100
AcDbBlockEnd
  0
BLOCK
  5
A6
100
AcDbEntity
  8
1
  6
CONTINUOUS
 62
     1
100
AcDbBlockBegin
  2
LDR
 70
     0
 10
0.0
 20
0.0
 30
0.0
  3
LNR
  1

  0
ELLIPSE
  5
A7
100
AcDbEntity
  8
1
  6
CONTINUOUS
 62
     1
100
AcDbEllipse
 10
-0.004547
 20
-0.001151
 30
0.0
 11
0.007440417051956
 21
0.0006506250108083
 31
0.0
210
0.0
220
0.0
230
1.0
 40
0.122415
 41
0.8963533496766982
 42
3.1415926535897931
  0
ELLIPSE
  5
A8
100
AcDbEntity
  8
1
  6
CONTINUOUS
 62
     1
100
AcDbEllipse
 10
-0.004669
 20
0.000882
 30
0.0
 11
0.0073185421713632
 21
-0.000731875170693
 31
0.0
210
0.0
220
0.0
230
1.0
 40
0.07063
 41
3.1407147529760402
 42
5.4181099545465106
  0
ENDBLK
  5
A9
100
AcDbEntity
  8
1
  6
CONTINUOUS
 62
     1
100
AcDbBlockEnd
  0
ENDSEC
  0
SECTION
  2
ENTITIES
  0
LINE
  5
2B
100
AcDbEntity
  8
61
  6
CONTINUOUS
 62
     1
100
AcDbLine
 10
623.773833
 20
52.46025
 30
0.0
 11
-15.266167
 21
52.46025
 31
0.0
  0
LINE
  5
2C
100
AcDbEntity
  8
61
  6
CONTINUOUS
 62
     1
100
AcDbLine
 10
-15.266167
 20
52.46025
 30
0.0
 11
-15.266167
 21
-367.55975
 31
0.0
  0
LINE
  5
2D
100
AcDbEntity
  8
61
  6
CONTINUOUS
 62
     1
100
AcDbLine
 10
623.793833
 20
-367.57975
 30
0.0
 11
-15.266167
 21
-367.55975
 31
0.0
  0
LINE
  5
2E
100
AcDbEntity
  8
61
  6
CONTINUOUS
 62
     1
100
AcDbLine
 10
623.773833
 20
52.46025
 30
0.0
 11
623.793833
 21
-367.57975
 31
0.0
  0
LINE
  5
2F
100
AcDbEntity
  8
61
  6
CONTINUOUS
 62
     1
100
AcDbLine
 10
617.673833
 20
47.72025
 30
0.0
 11
509.693833
 21
47.70025
 31
0.0
  0
LINE
  5
30
100
AcDbEntity
  8
61
  6
CONTINUOUS
 62
     1
100
AcDbLine
 10
509.693833
 20
47.70025
 30
0.0
 11
509.693833
 21
27.70025
 31
0.0
  0
LINE
  5
31
100
AcDbEntity
  8
61
  6
CONTINUOUS
 62
     1
100
AcDbLine
 10
617.673833
 20
47.72025
 30
0.0
 11
617.673833
 21
27.72025
 31
0.0
  0
LINE
  5
32
100
AcDbEntity
  8
61
  6
CONTINUOUS
 62
     1
100
AcDbLine
 10
617.673833
 20
27.72025
 30
0.0
 11
509.693833
 21
27.70025
 31
0.0
  0
LINE
  5
33
100
AcDbEntity
  8
61
  6
CONTINUOUS
 62
     1
100
AcDbLine
 10
617.693833
 20
37.68025
 30
0.0
 11
509.673833
 21
37.70025
 31
0.0
  0
LINE
  5
34
100
AcDbEntity
  8
61
  6
CONTINUOUS
 62
     1
100
AcDbLine
 10
519.693833
 20
47.70025
 30
0.0
 11
519.693833
 21
27.70025
 31
0.0
  0
LINE
  5
35
100
AcDbEntity
  8
61
  6
CONTINUOUS
 62
     1
100
AcDbLine
 10
529.693833
 20
47.70025
 30
0.0
 11
529.693833
 21
27.70025
 31
0.0
  0
LINE
  5
36
100
AcDbEntity
  8
61
  6
CONTINUOUS
 62
     1
100
AcDbLine
 10
543.373833
 20
47.70025
 30
0.0
 11
543.373833
 21
27.70025
 31
0.0
  0
LINE
  5
37
100
AcDbEntity
  8
61
  6
CONTINUOUS
 62
     1
100
AcDbLine
 10
607.673833
 20
47.72025
 30
0.0
 11
607.673833
 21
27.72025
 31
0.0
  0
LINE
  5
38
100
AcDbEntity
  8
61
  6
CONTINUOUS
 62
     1
100
AcDbLine
 10
597.673833
 20
47.72025
 30
0.0
 11
597.673833
 21
27.72025
 31
0.0
  0
LINE
  5
39
100
AcDbEntity
  8
61
  6
CONTINUOUS
 62
     1
100
AcDbLine
 10
575.693833
 20
47.70025
 30
0.0
 11
575.693833
 21
27.70025
 31
0.0
  0
LINE
  5
3A
100
AcDbEntity
  8
61
  6
CONTINUOUS
 62
     1
100
AcDbLine
 10
565.693833
 20
47.70025
 30
0.0
 11
565.693833
 21
27.70025
 31
0.0
  0
TEXT
  5
3C
100
AcDbEntity
  8
61
  6
CONTINUOUS
 62
     1
100
AcDbText
 10
511.733833
 20
44.68025
 30
0.0
 40
1.20072
  1
PUBLIC
 50
0.033272
 41
1.001799
  7
MONOTXT
210
0.0
220
0.0
230
1.0
100
AcDbText
  0
TEXT
  5
3D
100
AcDbEntity
  8
61
  6
CONTINUOUS
 62
     1
100
AcDbText
 10
511.813833
 20
42.16025
 30
0.0
 40
1.20072
  1
ROADS
 50
0.124322
 41
0.996902
  7
MONOTXT
210
0.0
220
0.0
230
1.0
100
AcDbText
  0
TEXT
  5
3E
100
AcDbEntity
  8
61
  6
CONTINUOUS
 62
     1
100
AcDbText
 10
513.013833
 20
39.66025
 30
0.0
 40
1.20072
  1
DIV.
 50
359.931522
 41
0.994903
  7
MONOTXT
210
0.0
220
0.0
230
1.0
100
AcDbText
  0
TEXT
  5
3F
100
AcDbEntity
  8
61
  6
CONTINUOUS
 62
     1
100
AcDbText
 10
521.893833
 20
44.74025
 30
0.0
 40
1.20072
  1
STATE
 50
0.058969
 41
0.998201
  7
MONOTXT
210
0.0
220
0.0
230
1.0
100
AcDbText
  0
TEXT
  5
40
100
AcDbEntity
  8
61
  6
CONTINUOUS
 62
     1
100
AcDbText
 10
522.773833
 20
42.24025
 30
0.0
 40
1.20072
  1
DIST.
 50
0.055889
 41
0.9996
  7
MONOTXT
210
0.0
220
0.0
230
1.0
100
AcDbText
  0
TEXT
  5
41
100
AcDbEntity
  8
61
  6
CONTINUOUS
 62
     1
100
AcDbText
 10
523.353833
 20
39.72025
 30
0.0
 40
1.20072
  1
NO.
 50
359.852072
 41
0.997801
  7
MONOTXT
210
0.0
220
0.0
230
1.0
100
AcDbText
  0
TEXT
  5
42
100
AcDbEntity
  8
61
  6
CONTINUOUS
 62
     1
100
AcDbText
 10
533.893833
 20
44.68025
 30
0.0
 40
1.20072
  1
STATE
 50
0.058969
 41
0.998201
  7
MONOTXT
210
0.0
220
0.0
230
1.0
100
AcDbText
  0
TEXT
  5
43
100
AcDbEntity
  8
61
  6
CONTINUOUS
 62
     1
100
AcDbText
 10
532.813833
 20
42.26025
 30
0.0
 40
1.20072
  1
PROJECT
 50
359.908431
 41
1.0001
  7
MONOTXT
210
0.0
220
0.0
230
1.0
100
AcDbText
  0
TEXT
  5
44
100
AcDbEntity
  8
61
  6
CONTINUOUS
 62
     1
100
AcDbText
 10
535.553833
 20
39.72025
 30
0.0
 40
1.20072
  1
NO.
 50
0.225453
 41
0.993604
  7
MONOTXT
210
0.0
220
0.0
230
1.0
100
AcDbText
  0
TEXT
  5
45
100
AcDbEntity
  8
61
  6
CONTINUOUS
 62
     1
100
AcDbText
 10
551.193833
 20
43.56025
 30
0.0
 40
1.20072
  1
FEDERAL
 50
0.006714
 41
0.998601
  7
MONOTXT
210
0.0
220
0.0
230
1.0
100
AcDbText
  0
TEXT
  5
46
100
AcDbEntity
  8
61
  6
CONTINUOUS
 62
     1
100
AcDbText
 10
549.653833
 20
40.90025
 30
0.0
 40
1.20072
  1
PROJECT NO.
 50
359.921531
 41
1.0007
  7
MONOTXT
210
0.0
220
0.0
230
1.0
100
AcDbText
  0
TEXT
  5
47
100
AcDbEntity
  8
61
  6
CONTINUOUS
 62
     1
100
AcDbText
 10
567.933833
 20
43.50025
 30
0.0
 40
1.20072
  1
FISCAL
 50
359.941939
 41
0.999001
  7
MONOTXT
210
0.0
220
0.0
230
1.0
100
AcDbText
  0
TEXT
  5
48
100
AcDbEntity
  8
61
  6
CONTINUOUS
 62
     1
100
AcDbText
 10
568.453833
 20
40.60025
 30
0.0
 40
1.20072
  1
YEAR
 50
0.104606
 41
0.993304
  7
MONOTXT
210
0.0
220
0.0
230
1.0
100
AcDbText
  0
TEXT
  5
49
100
AcDbEntity
  8
61
  6
CONTINUOUS
 62
     1
100
AcDbText
 10
582.553833
 20
41.96025
 30
0.0
 40
1.20072
  1
COUNTY
 50
0.068575
 41
1.001899
  7
MONOTXT
210
0.0
220
0.0
230
1.0
100
AcDbText
  0
TEXT
  5
4A
100
AcDbEntity
  8
61
  6
CONTINUOUS
 62
     1
100
AcDbText
 10
600.193833
 20
43.62025
 30
0.0
 40
1.20072
  1
SHEET
 50
0.058969
 41
0.997601
  7
MONOTXT
210
0.0
220
0.0
230
1.0
100
AcDbText
  0
TEXT
  5
4B
100
AcDbEntity
  8
61
  6
CONTINUOUS
 62
     1
100
AcDbText
 10
601.613833
 20
40.90025
 30
0.0
 40
1.20072
  1
NO.
 50
359.852072
 41
0.997801
  7
MONOTXT
210
0.0
220
0.0
230
1.0
100
AcDbText
  0
TEXT
  5
4C
100
AcDbEntity
  8
61
  6
CONTINUOUS
 62
     1
100
AcDbText
 10
609.933833
 20
43.48025
 30
0.0
 40
1.20072
  1
TOTAL
 50
359.926039
 41
0.998601
  7
MONOTXT
210
0.0
220
0.0
230
1.0
100
AcDbText
  0
TEXT
  5
4D
100
AcDbEntity
  8
61
  6
CONTINUOUS
 62
     1
100
AcDbText
 10
609.473833
 20
40.78025
 30
0.0
 40
1.20072
  1
SHEETS
 50
359.958675
  7
MONOTXT
210
0.0
220
0.0
230
1.0
100
AcDbText
  0
TEXT
  5
4E
100
AcDbEntity
  8
61
  6
CONTINUOUS
 62
     1
100
AcDbText
 10
522.293833
 20
31.90025
 30
0.0
 40
2.40132
  1
  
 50
0.029406
 41
0.996502
  7
MONOTXT
210
0.0
220
0.0
230
1.0
100
AcDbText
  0
TEXT
  5
4F
100
AcDbEntity
  8
61
  6
CONTINUOUS
 62
     1
100
AcDbText
 10
599.473833
 20
31.62025
 30
0.0
 40
2.40132
  1
   
 50
0.011508
 41
1.000999
  7
MONOTXT
210
0.0
220
0.0
230
1.0
100
AcDbText
  0
TEXT
  5
50
100
AcDbEntity
  8
61
  6
CONTINUOUS
 62
     1
100
AcDbText
 10
609.353833
 20
31.60025
 30
0.0
 40
2.40132
  1
   
 50
359.922128
 41
1.00055
  7
MONOTXT
210
0.0
220
0.0
230
1.0
100
AcDbText
  0
TEXT
  5
51
100
AcDbEntity
  8
61
  6
CONTINUOUS
 62
     1
100
AcDbText
 10
532.733833
 20
35.00025
 30
0.0
 40
2.00676
  1
    
 50
0.054383
 41
0.993721
  7
MONOTXT
210
0.0
220
0.0
230
1.0
100
AcDbText
  0
TEXT
  5
52
100
AcDbEntity
  8
61
  6
CONTINUOUS
 62
     1
100
AcDbText
 10
529.813833
 20
31.98025
 30
0.0
 40
1.9896
  1
       
 50
0.064678
 41
1.000965
  7
MONOTXT
210
0.0
220
0.0
230
1.0
100
AcDbText
  0
TEXT
  5
53
100
AcDbEntity
  8
61
  6
CONTINUOUS
 62
     1
100
AcDbText
 10
530.773833
 20
29.08025
 30
0.0
 40
1.9896
  1
      
 50
359.958053
 41
1.000302
  7
MONOTXT
210
0.0
220
0.0
230
1.0
100
AcDbText
  0
TEXT
  5
54
100
AcDbEntity
  8
61
  6
CONTINUOUS
 62
     1
100
AcDbText
 10
541.733833
 20
33.72025
 30
0.0
 40
2.40132
  1
           
 50
0.011508
 41
0.998751
  7
MONOTXT
210
0.0
220
0.0
230
1.0
100
AcDbText
  0
TEXT
  5
55
100
AcDbEntity
  8
61
  6
CONTINUOUS
 62
     1
100
AcDbText
 10
541.613833
 20
30.06025
 30
0.0
 40
2.40132
  1
           
 50
0.011508
 41
0.9996
  7
MONOTXT
210
0.0
220
0.0
230
1.0
100
AcDbText
  0
TEXT
  5
56
100
AcDbEntity
  8
61
  6
CONTINUOUS
 62
     1
100
AcDbText
 10
576.953833
 20
31.80025
 30
0.0
 40
2.00676
  1
          
 50
0.009222
 41
0.992764
  7
MONOTXT
210
0.0
220
0.0
230
1.0
100
AcDbText
  0
TEXT
  5
57
100
AcDbEntity
  8
61
  6
CONTINUOUS
 62
     1
100
AcDbText
 10
597.213833
 20
19.88025
 30
0.0
 40
2.40132
  1
     
 41
1.001399
  7
MONOTXT
210
0.0
220
0.0
230
1.0
100
AcDbText
  0
TEXT
  5
5A
100
AcDbEntity
  8
1
  6
CONTINUOUS
 62
     1
100
AcDbText
 10
589.513833
 20
-370.07975
 30
0.0
 40
1.2
  1
TRAFFIC ENGINEERING DIVISION
  7
TXT
210
0.0
220
0.0
230
1.0
100
AcDbText
  0
LINE
  5
5B
100
AcDbEntity
  8
1
  6
CONTINUOUS
 62
     1
100
AcDbLine
 10
452.133833
 20
-367.57975
 30
0.0
 11
452.133833
 21
-275.99975
 31
0.0
  0
LINE
  5
5C
100
AcDbEntity
  8
1
  6
CONTINUOUS
 62
     1
100
AcDbLine
 10
452.133833
 20
-275.99975
 30
0.0
 11
623.793833
 21
-275.99975
 31
0.0
  0
LINE
  5
5D
100
AcDbEntity
  8
1
  6
CONTINUOUS
 62
     1
100
AcDbLine
 10
487.133833
 20
-367.61975
 30
0.0
 11
487.133833
 21
-322.65975
 31
0.0
  0
LINE
  5
5E
100
AcDbEntity
  8
1
  6
CONTINUOUS
 62
     1
100
AcDbLine
 10
487.133833
 20
-322.65975
 30
0.0
 11
452.153833
 21
-322.65975
 31
0.0
  0
LINE
  5
5F
100
AcDbEntity
  8
1
  6
CONTINUOUS
 62
     1
100
AcDbLine
 10
487.133833
 20
-327.13975
 30
0.0
 11
452.153833
 21
-327.13975
 31
0.0
  0
LINE
  5
60
100
AcDbEntity
  8
1
  6
CONTINUOUS
 62
     1
100
AcDbLine
 10
487.133833
 20
-331.63975
 30
0.0
 11
452.153833
 21
-331.63975
 31
0.0
  0
LINE
  5
61
100
AcDbEntity
  8
1
  6
CONTINUOUS
 62
     1
100
AcDbLine
 10
487.133833
 20
-336.13975
 30
0.0
 11
452.153833
 21
-336.13975
 31
0.0
  0
LINE
  5
62
100
AcDbEntity
  8
1
  6
CONTINUOUS
 62
     1
100
AcDbLine
 10
487.133833
 20
-340.65975
 30
0.0
 11
452.153833
 21
-340.65975
 31
0.0
  0
LINE
  5
63
100
AcDbEntity
  8
1
  6
CONTINUOUS
 62
     1
100
AcDbLine
 10
487.133833
 20
-345.13975
 30
0.0
 11
452.153833
 21
-345.13975
 31
0.0
  0
LINE
  5
64
100
AcDbEntity
  8
1
  6
CONTINUOUS
 62
     1
100
AcDbLine
 10
487.133833
 20
-349.61975
 30
0.0
 11
452.153833
 21
-349.61975
 31
0.0
  0
LINE
  5
65
100
AcDbEntity
  8
1
  6
CONTINUOUS
 62
     1
100
AcDbLine
 10
487.133833
 20
-354.11975
 30
0.0
 11
452.153833
 21
-354.11975
 31
0.0
  0
LINE
  5
66
100
AcDbEntity
  8
1
  6
CONTINUOUS
 62
     1
100
AcDbLine
 10
487.133833
 20
-358.61975
 30
0.0
 11
452.153833
 21
-358.61975
 31
0.0
  0
LINE
  5
67
100
AcDbEntity
  8
1
  6
CONTINUOUS
 62
     1
100
AcDbLine
 10
487.133833
 20
-363.13975
 30
0.0
 11
452.153833
 21
-363.13975
 31
0.0
  0
TEXT
  5
68
100
AcDbEntity
  8
1
  6
CONTINUOUS
 62
     1
100
AcDbText
 10
462.413833
 20
-325.65975
 30
0.0
 40
1.99776
  1
REVISIONS
  7
MONOTXT
210
0.0
220
0.0
230
1.0
100
AcDbText
  0
TEXT
  5
69
100
AcDbEntity
  8
1
  6
CONTINUOUS
 62
     1
100
AcDbText
 10
454.093833
 20
-321.65975
 30
0.0
 40
1.99775
  1
PREPARED: 10/01/69
  7
MONOTXT
210
0.0
220
0.0
230
1.0
100
AcDbText
  0
TEXT
  5
6B
100
AcDbEntity
  8
1
  6
CONTINUOUS
 62
     1
100
AcDbText
 10
484.753833
 20
-284.59975
 30
0.0
 40
4.79484
  1
WEST VIRGINIA DIVISION OF HIGHWAYS
  7
ROMANT
 72
     1
 11
538.724083
 21
-279.804917
 31
0.0
210
0.0
220
0.0
230
1.0
100
AcDbText
 73
     3
  0
TEXT
  5
6C
100
AcDbEntity
  8
1
  6
CONTINUOUS
 62
     1
100
AcDbText
 10
495.513833
 20
-295.75975
 30
0.0
 40
6.99264
  1
STANDARD DETAIL
  7
TXT
 72
     1
 11
540.003917
 21
-288.767083
 31
0.0
210
0.0
220
0.0
230
1.0
100
AcDbText
 73
     3
  0
TEXT
  5
6D
100
AcDbEntity
  8
1
  6
CONTINUOUS
 62
     1
100
AcDbText
 10
490.973833
 20
-363.53975
 30
0.0
 40
6.99264
  1
STANDARD SHEET TP1-4 
  7
TXT
210
0.0
220
0.0
230
1.0
100
AcDbText
  0
TEXT
  5
6E
100
AcDbEntity
  8
1
  6
CONTINUOUS
 62
     1
100
AcDbText
 10
462.25275
 20
-330.71975
 30
0.0
 40
2.00004
  1
05-01-70
  7
MONOTXT
 72
     1
 11
469.10325
 21
-328.71975
 31
0.0
210
0.0
220
0.0
230
1.0
100
AcDbText
 73
     3
  0
TEXT
  5
6F
100
AcDbEntity
  8
1
  6
CONTINUOUS
 62
     1
100
AcDbText
 10
462.657917
 20
-335.11975
 30
0.0
 40
2.00004
  1
12-13-73
  7
MONOTXT
 72
     1
 11
469.091083
 21
-333.11975
 31
0.0
210
0.0
220
0.0
230
1.0
100
AcDbText
 73
     3
  0
TEXT
  5
70
100
AcDbEntity
  8
1
  6
CONTINUOUS
 62
     1
100
AcDbText
 10
462.34725
 20
-339.51975
 30
0.0
 40
2.00004
  1
06-01-76
  7
MONOTXT
 72
     1
 11
469.111083
 21
-337.51975
 31
0.0
210
0.0
220
0.0
230
1.0
100
AcDbText
 73
     3
  0
TEXT
  5
71
100
AcDbEntity
  8
1
  6
CONTINUOUS
 62
     1
100
AcDbText
 10
462.363
 20
-343.91975
 30
0.0
 40
2.00004
  1
09-13-93
  7
MONOTXT
 72
     1
 11
469.111167
 21
-341.91975
 31
0.0
210
0.0
220
0.0
230
1.0
100
AcDbText
 73
     3
  0
TEXT
  5
72
100
AcDbEntity
  8
1
  6
CONTINUOUS
 62
     1
100
AcDbText
 10
461.273833
 20
-348.51975
 30
0.0
 40
2.00004
  1
        
  7
MONOTXT
 72
     1
 11
468.940667
 21
-346.51975
 31
0.0
210
0.0
220
0.0
230
1.0
100
AcDbText
 73
     3
  0
TEXT
  5
73
100
AcDbEntity
  8
1
  6
CONTINUOUS
 62
     1
100
AcDbText
 10
461.433833
 20
-352.99975
 30
0.0
 40
2.00004
  1
        
  7
MONOTXT
 72
     1
 11
469.100667
 21
-350.99975
 31
0.0
210
0.0
220
0.0
230
1.0
100
AcDbText
 73
     3
  0
TEXT
  5
74
100
AcDbEntity
  8
1
  6
CONTINUOUS
 62
     1
100
AcDbText
 10
461.333833
 20
-357.59975
 30
0.0
 40
2.00004
  1
        
  7
MONOTXT
 72
     1
 11
469.000667
 21
-355.59975
 31
0.0
210
0.0
220
0.0
230
1.0
100
AcDbText
 73
     3
  0
TEXT
  5
75
100
AcDbEntity
  8
1
  6
CONTINUOUS
 62
     1
100
AcDbText
 10
461.433833
 20
-362.17975
 30
0.0
 40
2.00004
  1
        
  7
MONOTXT
 72
     1
 11
469.100667
 21
-360.17975
 31
0.0
210
0.0
220
0.0
230
1.0
100
AcDbText
 73
     3
  0
TEXT
  5
76
100
AcDbEntity
  8
1
  6
CONTINUOUS
 62
     1
100
AcDbText
 10
461.433833
 20
-366.19975
 30
0.0
 40
2.00004
  1
        
  7
MONOTXT
 72
     1
 11
469.100667
 21
-364.19975
 31
0.0
210
0.0
220
0.0
230
1.0
100
AcDbText
 73
     3
  0
TEXT
  5
77
100
AcDbEntity
  8
1
  6
CONTINUOUS
 62
     1
100
AcDbText
 10
504.253833
 20
-369.97975
 30
0.0
 40
1.2
  1
CATALOG:dt standa  FILENAME:tp14.dgn     DATE:03/23/93
  7
MONOTXT
210
0.0
220
0.0
230
1.0
100
AcDbText
  0
TEXT
  5
78
100
AcDbEntity
  8
1
  6
CONTINUOUS
 62
     1
100
AcDbText
 10
457.448833
 20
-305.766917
 30
0.0
 40
6.992667
  1
PUNCHING AND MOUNTING FOR
  7
TXT
 72
     1
 11
537.387667
 21
-298.77425
 31
0.0
210
0.0
220
0.0
230
1.0
100
AcDbText
 73
     3
  0
TEXT
  5
79
100
AcDbEntity
  8
1
  6
CONTINUOUS
 62
     1
100
AcDbText
 10
461.0275
 20
-315.774083
 30
0.0
 40
6.992667
  1
VERTICAL RECTANGULAR SIGNS
  7
TXT
 72
     1
 11
537.233833
 21
-308.781417
 31
0.0
210
0.0
220
0.0
230
1.0
100
AcDbText
 73
     3
  0
LWPOLYLINE
  5
7A
100
AcDbEntity
  8
1
  6
CONTINUOUS
 62
     7
100
AcDbPolyline
 90
        4
 70
     0
 10
454.6665
 20
-259.8805
 10
452.6665
 20
-263.344583
 10
456.6665
 20
-263.344583
 10
454.6665
 20
-259.8805
  0
LWPOLYLINE
  5
7B
100
AcDbEntity
  8
1
  6
CONTINUOUS
 62
     7
100
AcDbPolyline
 90
        4
 70
     0
 10
454.666583
 20
-254.722833
 10
452.666583
 20
-258.186917
 10
456.666583
 20
-258.186917
 10
454.666583
 20
-254.722833
  0
LWPOLYLINE
  5
7C
100
AcDbEntity
  8
1
  6
CONTINUOUS
 62
     7
100
AcDbPolyline
 90
        4
 70
     0
 10
457.599167
 20
-327.673833
 10
455.599167
 20
-331.137917
 10
459.599167
 20
-331.137917
 10
457.599167
 20
-327.673833
  0
LWPOLYLINE
  5
7D
100
AcDbEntity
  8
1
  6
CONTINUOUS
 62
     7
100
AcDbPolyline
 90
        4
 70
     0
 10
457.599167
 20
-332.138583
 10
455.599167
 20
-335.602667
 10
459.599167
 20
-335.602667
 10
457.599167
 20
-332.138583
  0
TEXT
  5
7E
100
AcDbEntity
  8
1
  6
CONTINUOUS
 62
     7
100
AcDbText
 10
454.410083
 20
-257.570917
 30
0.0
 40
1.5
  1
1
  7
MONOTXT
210
0.0
220
0.0
230
1.0
100
AcDbText
  0
TEXT
  5
7F
100
AcDbEntity
  8
1
  6
CONTINUOUS
 62
     7
100
AcDbText
 10
457.291333
 20
-330.598667
 30
0.0
 40
1.5
  1
1
  7
MONOTXT
210
0.0
220
0.0
230
1.0
100
AcDbText
  0
TEXT
  5
80
100
AcDbEntity
  8
1
  6
CONTINUOUS
 62
     7
100
AcDbText
 10
454.153583
 20
-262.805417
 30
0.0
 40
1.5
  1
2
  7
MONOTXT
210
0.0
220
0.0
230
1.0
100
AcDbText
  0
TEXT
  5
81
100
AcDbEntity
  8
1
  6
CONTINUOUS
 62
     7
100
AcDbText
 10
457.073333
 20
-335.1105
 30
0.0
 40
1.5
  1
2
  7
MONOTXT
210
0.0
220
0.0
230
1.0
100
AcDbText
  0
TEXT
  5
82
100
AcDbEntity
  8
1
  6
CONTINUOUS
 62
     7
100
AcDbText
 10
458.353667
 20
-262.14425
 30
0.0
 40
1.5
  1
ADDITION OF EXTRUDED RIB
  7
MONOTXT
210
0.0
220
0.0
230
1.0
100
AcDbText
  0
LINE
  5
83
100
AcDbEntity
  8
1
  6
CONTINUOUS
 62
   132
100
AcDbLine
 10
10.478833
 20
25.543333
 30
0.0
 11
49.478833
 21
25.543333
 31
0.0
  0
LINE
  5
84
100
AcDbEntity
  8
1
  6
CONTINUOUS
 62
   132
100
AcDbLine
 10
49.478833
 20
25.543333
 30
0.0
 11
49.478833
 21
-28.456667
 31
0.0
  0
LINE
  5
85
100
AcDbEntity
  8
1
  6
CONTINUOUS
 62
   132
100
AcDbLine
 10
49.478833
 20
-28.456667
 30
0.0
 11
10.478833
 21
-28.456667
 31
0.0
  0
LINE
  5
86
100
AcDbEntity
  8
1
  6
CONTINUOUS
 62
   132
100
AcDbLine
 10
10.478833
 20
-28.456667
 30
0.0
 11
10.478833
 21
25.543333
 31
0.0
  0
LINE
  5
87
100
AcDbEntity
  8
1
  6
CONTINUOUS
 62
     7
100
AcDbLine
 10
28.978833
 20
-1.456667
 30
0.0
 11
30.978833
 21
-1.456667
 31
0.0
  0
LINE
  5
88
100
AcDbEntity
  8
1
  6
CONTINUOUS
 62
     7
100
AcDbLine
 10
29.978833
 20
-0.456667
 30
0.0
 11
29.978833
 21
-2.456667
 31
0.0
  0
LINE
  5
89
100
AcDbEntity
  8
1
  6
CONTINUOUS
 62
     7
100
AcDbLine
 10
5.478833
 20
-1.456667
 30
0.0
 11
17.228833
 21
-1.456667
 31
0.0
  0
LINE
  5
8A
100
AcDbEntity
  8
1
  6
CONTINUOUS
 62
     7
100
AcDbLine
 10
18.228833
 20
-1.456667
 30
0.0
 11
20.228833
 21
-1.456667
 31
0.0
  0
LINE
  5
8B
100
AcDbEntity
  8
1
  6
CONTINUOUS
 62
     7
100
AcDbLine
 10
21.228833
 20
-1.456667
 30
0.0
 11
27.978833
 21
-1.456667
 31
0.0
  0
LINE
  5
8C
100
AcDbEntity
  8
1
  6
CONTINUOUS
 62
     7
100
AcDbLine
 10
31.978833
 20
-1.456667
 30
0.0
 11
38.728833
 21
-1.456667
 31
0.0
  0
LINE
  5
8D
100
AcDbEntity
  8
1
  6
CONTINUOUS
 62
     7
100
AcDbLine
 10
39.728833
 20
-1.456667
 30
0.0
 11
41.728833
 21
-1.456667
 31
0.0
  0
LINE
  5
8E
100
AcDbEntity
  8
1
  6
CONTINUOUS
 62
     7
100
AcDbLine
 10
42.728833
 20
-1.456667
 30
0.0
 11
59.478833
 21
-1.456667
 31
0.0
  0
CIRCLE
  5
8F
100
AcDbEntity
  8
1
  6
CONTINUOUS
 62
   132
100
AcDbCircle
 10
29.978833
 20
19.543333
 30
0.0
 40
1.0
210
0.0
220
0.0
230
1.0
  0
LINE
  5
90
100
AcDbEntity
  8
1
  6
CONTINUOUS
 62
     7
100
AcDbLine
 10
29.978833
 20
35.543333
 30
0.0
 11
29.978833
 21
21.543333
 31
0.0
  0
LINE
  5
91
100
AcDbEntity
  8
1
  6
CONTINUOUS
 62
     7
100
AcDbLine
 10
23.978833
 20
19.543333
 30
0.0
 11
27.978833
 21
19.543333
 31
0.0
  0
LINE
  5
92
100
AcDbEntity
  8
1
  6
CONTINUOUS
 62
     7
100
AcDbLine
 10
29.978833
 20
20.043333
 30
0.0
 11
29.978833
 21
19.043333
 31
0.0
  0
LINE
  5
93
100
AcDbEntity
  8
1
  6
CONTINUOUS
 62
     7
100
AcDbLine
 10
29.978833
 20
17.543333
 30
0.0
 11
29.978833
 21
0.543333
 31
0.0
  0
LINE
  5
94
100
AcDbEntity
  8
1
  6
CONTINUOUS
 62
     7
100
AcDbLine
 10
29.478833
 20
19.543333
 30
0.0
 11
30.478833
 21
19.543333
 31
0.0
  0
CIRCLE
  5
95
100
AcDbEntity
  8
1
  6
CONTINUOUS
 62
   132
100
AcDbCircle
 10
29.978833
 20
-22.456667
 30
0.0
 40
1.0
210
0.0
220
0.0
230
1.0
  0
LINE
  5
96
100
AcDbEntity
  8
1
  6
CONTINUOUS
 62
     7
100
AcDbLine
 10
29.978833
 20
-33.456667
 30
0.0
 11
29.978833
 21
-24.456667
 31
0.0
  0
LINE
  5
97
100
AcDbEntity
  8
1
  6
CONTINUOUS
 62
     7
100
AcDbLine
 10
23.978833
 20
-22.456667
 30
0.0
 11
27.978833
 21
-22.456667
 31
0.0
  0
LINE
  5
98
100
AcDbEntity
  8
1
  6
CONTINUOUS
 62
     7
100
AcDbLine
 10
29.978833
 20
-22.956667
 30
0.0
 11
29.978833
 21
-21.956667
 31
0.0
  0
LINE
  5
99
100
AcDbEntity
  8
1
  6
CONTINUOUS
 62
     7
100
AcDbLine
 10
29.978833
 20
-20.456667
 30
0.0
 11
29.978833
 21
-3.456667
 31
0.0
  0
LINE
  5
9A
100
AcDbEntity
  8
1
  6
CONTINUOUS
 62
     7
100
AcDbLine
 10
29.478833
 20
-22.456667
 30
0.0
 11
30.478833
 21
-22.456667
 31
0.0
  0
LINE
  5
9B
100
AcDbEntity
  8
1
  6
CONTINUOUS
 62
     7
100
AcDbLine
 10
49.478833
 20
26.543333
 30
0.0
 11
49.478833
 21
35.543333
 31
0.0
  0
LINE
  5
9C
100
AcDbEntity
  8
1
  6
CONTINUOUS
 62
     7
100
AcDbLine
 10
31.978833
 20
-22.456667
 30
0.0
 11
38.728833
 21
-22.456667
 31
0.0
  0
LINE
  5
9D
100
AcDbEntity
  8
1
  6
CONTINUOUS
 62
     7
100
AcDbLine
 10
39.728833
 20
-22.456667
 30
0.0
 11
41.728833
 21
-22.456667
 31
0.0
  0
LINE
  5
9E
100
AcDbEntity
  8
1
  6
CONTINUOUS
 62
     7
100
AcDbLine
 10
42.728833
 20
-22.456667
 30
0.0
 11
59.478833
 21
-22.456667
 31
0.0
  0
LINE
  5
9F
100
AcDbEntity
  8
1
  6
CONTINUOUS
 62
     7
100
AcDbLine
 10
31.978833
 20
19.543333
 30
0.0
 11
38.728833
 21
19.543333
 31
0.0
  0
LINE
  5
A0
100
AcDbEntity
  8
1
  6
CONTINUOUS
 62
     7
100
AcDbLine
 10
39.728833
 20
19.543333
 30
0.0
 11
41.728833
 21
19.543333
 31
0.0
  0
LINE
  5
A1
100
AcDbEntity
  8
1
  6
CONTINUOUS
 62
     7
100
AcDbLine
 10
42.728833
 20
19.543333
 30
0.0
 11
59.478833
 21
19.543333
 31
0.0
  0
LINE
  5
A2
100
AcDbEntity
  8
1
  6
CONTINUOUS
 62
     7
100
AcDbLine
 10
29.978833
 20
34.543333
 30
0.0
 11
49.478833
 21
34.543333
 31
0.0
  0
LINE
  5
A3
100
AcDbEntity
  8
1
  6
CONTINUOUS
 62
     7
100
AcDbLine
 10
58.478833
 20
19.543333
 30
0.0
 11
58.478833
 21
-1.456667
 31
0.0
  0
LINE
  5
A4
100
AcDbEntity
  8
1
  6
CONTINUOUS
 62
     7
100
AcDbLine
 10
58.478833
 20
-1.456667
 30
0.0
 11
58.478833
 21
-22.456667
 31
0.0
  0
INSERT
  5
AA
100
AcDbEntity
  8
1
  6
CONTINUOUS
 62
     1
100
AcDbBlockReference
  2
LDR
 10
29.978833
 20
34.543333
 30
0.0
 41
240.0
 42
240.0
 50
180.0
210
0.0
220
0.0
230
1.0
  0
INSERT
  5
AB
100
AcDbEntity
  8
1
  6
CONTINUOUS
 62
     1
100
AcDbBlockReference
  2
LDR
 10
49.478833
 20
34.543333
 30
0.0
 41
240.0
 42
240.0
210
0.0
220
0.0
230
1.0
  0
INSERT
  5
AC
100
AcDbEntity
  8
1
  6
CONTINUOUS
 62
     1
100
AcDbBlockReference
  2
LDR
 10
58.478833
 20
19.543333
 30
0.0
 41
240.0
 42
240.0
 50
90.0
210
0.0
220
0.0
230
1.0
  0
INSERT
  5
AD
100
AcDbEntity
  8
1
  6
CONTINUOUS
 62
     1
100
AcDbBlockReference
  2
LDR
 10
58.478833
 20
19.543333
 30
0.0
 41
240.0
 42
240.0
 50
90.0
210
0.0
220
0.0
230
1.0
  0
INSERT
  5
AE
100
AcDbEntity
  8
1
  6
CONTINUOUS
 62
     1
100
AcDbBlockReference
  2
LDR
 10
58.478833
 20
-1.456667
 30
0.0
 41
240.0
 42
240.0
 50
270.0
210
0.0
220
0.0
230
1.0
  0
INSERT
  5
AF
100
AcDbEntity
  8
1
  6
CONTINUOUS
 62
     1
100
AcDbBlockReference
  2
LDR
 10
58.478833
 20
-1.456667
 30
0.0
 41
240.0
 42
240.0
 50
270.0
210
0.0
220
0.0
230
1.0
  0
INSERT
  5
B0
100
AcDbEntity
  8
1
  6
CONTINUOUS
 62
     1
100
AcDbBlockReference
  2
LDR
 10
58.478833
 20
-1.456667
 30
0.0
 41
240.0
 42
240.0
 50
90.0
210
0.0
220
0.0
230
1.0
  0
INSERT
  5
B1
100
AcDbEntity
  8
1
  6
CONTINUOUS
 62
     1
100
AcDbBlockReference
  2
LDR
 10
58.478833
 20
-1.456667
 30
0.0
 41
240.0
 42
240.0
 50
90.0
210
0.0
220
0.0
230
1.0
  0
INSERT
  5
B2
100
AcDbEntity
  8
1
  6
CONTINUOUS
 62
     1
100
AcDbBlockReference
  2
LDR
 10
58.478833
 20
-22.456667
 30
0.0
 41
240.0
 42
240.0
 50
270.0
210
0.0
220
0.0
230
1.0
  0
LINE
  5
B3
100
AcDbEntity
  8
1
  6
CONTINUOUS
 62
   132
100
AcDbLine
 10
10.478833
 20
-44.456667
 30
0.0
 11
49.478833
 21
-44.456667
 31
0.0
  0
LINE
  5
B4
100
AcDbEntity
  8
1
  6
CONTINUOUS
 62
   132
100
AcDbLine
 10
49.478833
 20
-44.456667
 30
0.0
 11
49.478833
 21
-98.456667
 31
0.0
  0
LINE
  5
B5
100
AcDbEntity
  8
1
  6
CONTINUOUS
 62
   132
100
AcDbLine
 10
49.478833
 20
-98.456667
 30
0.0
 11
10.478833
 21
-98.456667
 31
0.0
  0
LINE
  5
B6
100
AcDbEntity
  8
1
  6
CONTINUOUS
 62
   132
100
AcDbLine
 10
10.478833
 20
-98.456667
 30
0.0
 11
10.478833
 21
-44.456667
 31
0.0
  0
LINE
  5
B7
100
AcDbEntity
  8
1
  6
CONTINUOUS
 62
     7
100
AcDbLine
 10
28.978833
 20
-71.456667
 30
0.0
 11
30.978833
 21
-71.456667
 31
0.0
  0
LINE
  5
B8
100
AcDbEntity
  8
1
  6
CONTINUOUS
 62
     7
100
AcDbLine
 10
29.978833
 20
-70.456667
 30
0.0
 11
29.978833
 21
-72.456667
 31
0.0
  0
LINE
  5
B9
100
AcDbEntity
  8
1
  6
CONTINUOUS
 62
     7
100
AcDbLine
 10
5.478833
 20
-71.456667
 30
0.0
 11
17.228833
 21
-71.456667
 31
0.0
  0
LINE
  5
BA
100
AcDbEntity
  8
1
  6
CONTINUOUS
 62
     7
100
AcDbLine
 10
18.228833
 20
-71.456667
 30
0.0
 11
20.228833
 21
-71.456667
 31
0.0
  0
LINE
  5
BB
100
AcDbEntity
  8
1
  6
CONTINUOUS
 62
     7
100
AcDbLine
 10
21.228833
 20
-71.456667
 30
0.0
 11
27.978833
 21
-71.456667
 31
0.0
  0
LINE
  5
BC
100
AcDbEntity
  8
1
  6
CONTINUOUS
 62
     7
100
AcDbLine
 10
31.978833
 20
-71.456667
 30
0.0
 11
38.728833
 21
-71.456667
 31
0.0
  0
LINE
  5
BD
100
AcDbEntity
  8
1
  6
CONTINUOUS
 62
     7
100
AcDbLine
 10
39.728833
 20
-71.456667
 30
0.0
 11
41.728833
 21
-71.456667
 31
0.0
  0
LINE
  5
BE
100
AcDbEntity
  8
1
  6
CONTINUOUS
 62
     7
100
AcDbLine
 10
42.728833
 20
-71.456667
 30
0.0
 11
54.478833
 21
-71.456667
 31
0.0
  0
CIRCLE
  5
BF
100
AcDbEntity
  8
1
  6
CONTINUOUS
 62
   132
100
AcDbCircle
 10
29.978833
 20
-50.456667
 30
0.0
 40
1.0
210
0.0
220
0.0
230
1.0
  0
LINE
  5
C0
100
AcDbEntity
  8
1
  6
CONTINUOUS
 62
     7
100
AcDbLine
 10
29.978833
 20
-39.456667
 30
0.0
 11
29.978833
 21
-48.456667
 31
0.0
  0
LINE
  5
C1
100
AcDbEntity
  8
1
  6
CONTINUOUS
 62
     7
100
AcDbLine
 10
23.978833
 20
-50.456667
 30
0.0
 11
27.978833
 21
-50.456667
 31
0.0
  0
LINE
  5
C2
100
AcDbEntity
  8
1
  6
CONTINUOUS
 62
     7
100
AcDbLine
 10
29.978833
 20
-49.956667
 30
0.0
 11
29.978833
 21
-50.956667
 31
0.0
  0
LINE
  5
C3
100
AcDbEntity
  8
1
  6
CONTINUOUS
 62
     7
100
AcDbLine
 10
29.978833
 20
-52.456667
 30
0.0
 11
29.978833
 21
-69.456667
 31
0.0
  0
LINE
  5
C4
100
AcDbEntity
  8
1
  6
CONTINUOUS
 62
     7
100
AcDbLine
 10
29.478833
 20
-50.456667
 30
0.0
 11
30.478833
 21
-50.456667
 31
0.0
  0
CIRCLE
  5
C5
100
AcDbEntity
  8
1
  6
CONTINUOUS
 62
   132
100
AcDbCircle
 10
29.978833
 20
-92.456667
 30
0.0
 40
1.0
210
0.0
220
0.0
230
1.0
  0
LINE
  5
C6
100
AcDbEntity
  8
1
  6
CONTINUOUS
 62
     7
100
AcDbLine
 10
29.978833
 20
-112.721
 30
0.0
 11
29.978833
 21
-94.456667
 31
0.0
  0
LINE
  5
C7
100
AcDbEntity
  8
1
  6
CONTINUOUS
 62
     7
100
AcDbLine
 10
23.978833
 20
-92.456667
 30
0.0
 11
27.978833
 21
-92.456667
 31
0.0
  0
LINE
  5
C8
100
AcDbEntity
  8
1
  6
CONTINUOUS
 62
     7
100
AcDbLine
 10
29.978833
 20
-92.956667
 30
0.0
 11
29.978833
 21
-91.956667
 31
0.0
  0
LINE
  5
C9
100
AcDbEntity
  8
1
  6
CONTINUOUS
 62
     7
100
AcDbLine
 10
29.978833
 20
-90.456667
 30
0.0
 11
29.978833
 21
-73.456667
 31
0.0
  0
LINE
  5
CA
100
AcDbEntity
  8
1
  6
CONTINUOUS
 62
     7
100
AcDbLine
 10
29.478833
 20
-92.456667
 30
0.0
 11
30.478833
 21
-92.456667
 31
0.0
  0
LINE
  5
CB
100
AcDbEntity
  8
1
  6
CONTINUOUS
 62
     7
100
AcDbLine
 10
31.978833
 20
-92.456667
 30
0.0
 11
35.978833
 21
-92.456667
 31
0.0
  0
LINE
  5
CC
100
AcDbEntity
  8
1
  6
CONTINUOUS
 62
     7
100
AcDbLine
 10
31.978833
 20
-50.456667
 30
0.0
 11
35.978833
 21
-50.456667
 31
0.0
  0
LINE
  5
CD
100
AcDbEntity
  8
1
  6
HIDDEN
 62
   132
100
AcDbLine
 10
26.478833
 20
-46.956667
 30
0.0
 11
33.478833
 21
-46.956667
 31
0.0
  0
LINE
  5
CE
100
AcDbEntity
  8
1
  6
HIDDEN
 62
   132
100
AcDbLine
 10
26.478833
 20
-46.956667
 30
0.0
 11
26.478833
 21
-98.456667
 31
0.0
  0
LINE
  5
CF
100
AcDbEntity
  8
1
  6
HIDDEN
 62
   132
100
AcDbLine
 10
33.478833
 20
-46.956667
 30
0.0
 11
33.478833
 21
-98.456667
 31
0.0
  0
LINE
  5
D0
100
AcDbEntity
  8
1
  6
HIDDEN
 62
   132
100
AcDbLine
 10
27.728833
 20
-46.956667
 30
0.0
 11
27.728833
 21
-98.456667
 31
0.0
  0
LINE
  5
D1
100
AcDbEntity
  8
1
  6
HIDDEN
 62
   132
100
AcDbLine
 10
32.228833
 20
-46.956667
 30
0.0
 11
32.228833
 21
-98.456667
 31
0.0
  0
LINE
  5
D2
100
AcDbEntity
  8
1
  6
CONTINUOUS
 62
   132
100
AcDbLine
 10
26.478833
 20
-98.456667
 30
0.0
 11
26.478833
 21
-111.456667
 31
0.0
  0
LINE
  5
D3
100
AcDbEntity
  8
1
  6
CONTINUOUS
 62
   132
100
AcDbLine
 10
27.728833
 20
-98.456667
 30
0.0
 11
27.728833
 21
-111.456667
 31
0.0
  0
LINE
  5
D4
100
AcDbEntity
  8
1
  6
CONTINUOUS
 62
   132
100
AcDbLine
 10
32.228833
 20
-98.456667
 30
0.0
 11
32.228833
 21
-111.456667
 31
0.0
  0
LINE
  5
D5
100
AcDbEntity
  8
1
  6
CONTINUOUS
 62
   132
100
AcDbLine
 10
33.478833
 20
-98.456667
 30
0.0
 11
33.478833
 21
-111.456667
 31
0.0
  0
LINE
  5
D6
100
AcDbEntity
  8
1
  6
CONTINUOUS
 62
   132
100
AcDbLine
 10
49.478833
 20
-129.456667
 30
0.0
 11
10.478833
 21
-129.456667
 31
0.0
  0
LINE
  5
D7
100
AcDbEntity
  8
1
  6
CONTINUOUS
 62
   132
100
AcDbLine
 10
49.478833
 20
-128.456667
 30
0.0
 11
10.478833
 21
-128.456667
 31
0.0
  0
LINE
  5
D8
100
AcDbEntity
  8
1
  6
CONTINUOUS
 62
   132
100
AcDbLine
 10
10.478833
 20
-128.456667
 30
0.0
 11
10.478833
 21
-129.456667
 31
0.0
  0
LINE
  5
D9
100
AcDbEntity
  8
1
  6
CONTINUOUS
 62
   132
100
AcDbLine
 10
49.478833
 20
-128.456667
 30
0.0
 11
49.478833
 21
-129.456667
 31
0.0
  0
LINE
  5
DA
100
AcDbEntity
  8
1
  6
CONTINUOUS
 62
   132
100
AcDbLine
 10
30.978833
 20
-130.456667
 30
0.0
 11
28.978833
 21
-130.456667
 31
0.0
  0
LINE
  5
DB
100
AcDbEntity
  8
1
  6
CONTINUOUS
 62
   132
100
AcDbLine
 10
28.978833
 20
-130.456667
 30
0.0
 11
28.978833
 21
-129.456667
 31
0.0
  0
LINE
  5
DC
100
AcDbEntity
  8
1
  6
CONTINUOUS
 62
   132
100
AcDbLine
 10
30.978833
 20
-130.456667
 30
0.0
 11
30.978833
 21
-129.456667
 31
0.0
  0
LINE
  5
DD
100
AcDbEntity
  8
1
  6
CONTINUOUS
 62
   132
100
AcDbLine
 10
27.478833
 20
-127.706667
 30
0.0
 11
27.478833
 21
-128.456667
 31
0.0
  0
LINE
  5
DE
100
AcDbEntity
  8
1
  6
CONTINUOUS
 62
   132
100
AcDbLine
 10
32.478833
 20
-127.706667
 30
0.0
 11
32.478833
 21
-128.456667
 31
0.0
  0
LINE
  5
DF
100
AcDbEntity
  8
1
  6
CONTINUOUS
 62
   132
100
AcDbLine
 10
27.478833
 20
-127.706667
 30
0.0
 11
28.1905
 21
-127.706667
 31
0.0
  0
LINE
  5
E0
100
AcDbEntity
  8
1
  6
CONTINUOUS
 62
   132
100
AcDbLine
 10
31.767083
 20
-127.706667
 30
0.0
 11
32.478833
 21
-127.706667
 31
0.0
  0
LINE
  5
E1
100
AcDbEntity
  8
1
  6
CONTINUOUS
 62
   132
100
AcDbLine
 10
28.72625
 20
-123.956667
 30
0.0
 11
31.231333
 21
-123.956667
 31
0.0
  0
LINE
  5
E2
100
AcDbEntity
  8
1
  6
CONTINUOUS
 62
   132
100
AcDbLine
 10
28.72625
 20
-123.956667
 30
0.0
 11
28.1905
 21
-127.706667
 31
0.0
  0
LINE
  5
E3
100
AcDbEntity
  8
1
  6
CONTINUOUS
 62
   132
100
AcDbLine
 10
31.231333
 20
-123.956667
 30
0.0
 11
31.767083
 21
-127.706667
 31
0.0
  0
LINE
  5
E4
100
AcDbEntity
  8
1
  6
CONTINUOUS
 62
   132
100
AcDbLine
 10
29.376667
 20
-124.706667
 30
0.0
 11
28.840917
 21
-128.456667
 31
0.0
  0
LINE
  5
E5
100
AcDbEntity
  8
1
  6
CONTINUOUS
 62
   132
100
AcDbLine
 10
30.580833
 20
-124.706667
 30
0.0
 11
31.116583
 21
-128.456667
 31
0.0
  0
LINE
  5
E6
100
AcDbEntity
  8
1
  6
CONTINUOUS
 62
   132
100
AcDbLine
 10
29.376667
 20
-124.706667
 30
0.0
 11
30.580833
 21
-124.706667
 31
0.0
  0
LINE
  5
E7
100
AcDbEntity
  8
1
  6
CONTINUOUS
 62
   132
100
AcDbLine
 10
30.978833
 20
-122.95275
 30
0.0
 11
28.978833
 21
-122.95275
 31
0.0
  0
LINE
  5
E8
100
AcDbEntity
  8
1
  6
CONTINUOUS
 62
   132
100
AcDbLine
 10
28.978833
 20
-122.95275
 30
0.0
 11
28.978833
 21
-123.95275
 31
0.0
  0
LINE
  5
E9
100
AcDbEntity
  8
1
  6
CONTINUOUS
 62
   132
100
AcDbLine
 10
30.978833
 20
-122.95275
 30
0.0
 11
30.978833
 21
-123.95275
 31
0.0
  0
LINE
  5
EA
100
AcDbEntity
  8
1
  6
CONTINUOUS
 62
   132
100
AcDbLine
 10
29.603833
 20
-128.456667
 30
0.0
 11
29.603833
 21
-124.706667
 31
0.0
  0
LINE
  5
EB
100
AcDbEntity
  8
1
  6
CONTINUOUS
 62
   132
100
AcDbLine
 10
30.353833
 20
-128.456667
 30
0.0
 11
30.353833
 21
-124.706667
 31
0.0
  0
LINE
  5
EC
100
AcDbEntity
  8
1
  6
CONTINUOUS
 62
     7
100
AcDbLine
 10
29.978833
 20
-125.581667
 30
0.0
 11
29.978833
 21
-120.95275
 31
0.0
  0
LINE
  5
ED
100
AcDbEntity
  8
1
  6
CONTINUOUS
 62
     7
100
AcDbLine
 10
29.978833
 20
-133.456667
 30
0.0
 11
29.978833
 21
-127.581667
 31
0.0
  0
LINE
  5
EE
100
AcDbEntity
  8
1
  6
CONTINUOUS
 62
     7
100
AcDbLine
 10
29.978833
 20
-127.081667
 30
0.0
 11
29.978833
 21
-126.081667
 31
0.0
  0
LINE
  5
EF
100
AcDbEntity
  8
1
  6
CONTINUOUS
 62
     7
100
AcDbLine
 10
18.364583
 20
-129.456667
 30
0.0
 11
23.050583
 21
-138.0
 31
0.0
  0
LINE
  5
F0
100
AcDbEntity
  8
1
  6
CONTINUOUS
 62
     7
100
AcDbLine
 10
23.050583
 20
-138.0
 30
0.0
 11
29.81425
 21
-138.0
 31
0.0
  0
INSERT
  5
F1
100
AcDbEntity
  8
1
  6
CONTINUOUS
 62
     1
100
AcDbBlockReference
  2
LDR
 10
18.364583
 20
-129.456667
 30
0.0
 41
239.999999
 42
239.999999
 50
118.744674
210
0.0
220
0.0
230
1.0
  0
LINE
  5
F2
100
AcDbEntity
  8
1
  6
CONTINUOUS
 62
   132
100
AcDbLine
 10
76.478833
 20
-44.456667
 30
0.0
 11
76.478833
 21
-98.456667
 31
0.0
  0
LINE
  5
F3
100
AcDbEntity
  8
1
  6
CONTINUOUS
 62
   132
100
AcDbLine
 10
77.478833
 20
-44.456667
 30
0.0
 11
77.478833
 21
-98.456667
 31
0.0
  0
LINE
  5
F4
100
AcDbEntity
  8
1
  6
CONTINUOUS
 62
   132
100
AcDbLine
 10
76.478833
 20
-44.456667
 30
0.0
 11
77.478833
 21
-44.456667
 31
0.0
  0
LINE
  5
F5
100
AcDbEntity
  8
1
  6
CONTINUOUS
 62
   132
100
AcDbLine
 10
76.478833
 20
-98.456667
 30
0.0
 11
77.478833
 21
-98.456667
 31
0.0
  0
LINE
  5
F6
100
AcDbEntity
  8
1
  6
CONTINUOUS
 62
   132
100
AcDbLine
 10
78.228833
 20
-46.956667
 30
0.0
 11
78.228833
 21
-110.956667
 31
0.0
  0
LINE
  5
F7
100
AcDbEntity
  8
1
  6
CONTINUOUS
 62
   132
100
AcDbLine
 10
79.228833
 20
-46.956667
 30
0.0
 11
79.228833
 21
-110.956667
 31
0.0
  0
LINE
  5
F8
100
AcDbEntity
  8
1
  6
CONTINUOUS
 62
   132
100
AcDbLine
 10
82.728833
 20
-46.956667
 30
0.0
 11
82.728833
 21
-110.956667
 31
0.0
  0
LINE
  5
F9
100
AcDbEntity
  8
1
  6
CONTINUOUS
 62
   132
100
AcDbLine
 10
78.228833
 20
-46.956667
 30
0.0
 11
82.728833
 21
-46.956667
 31
0.0
  0
LINE
  5
FA
100
AcDbEntity
  8
1
  6
HIDDEN
 62
   132
100
AcDbLine
 10
78.228833
 20
-48.956667
 30
0.0
 11
82.728833
 21
-48.956667
 31
0.0
  0
LINE
  5
FB
100
AcDbEntity
  8
1
  6
HIDDEN
 62
   132
100
AcDbLine
 10
78.228833
 20
-50.206667
 30
0.0
 11
82.728833
 21
-50.206667
 31
0.0
  0
LINE
  5
FC
100
AcDbEntity
  8
1
  6
CONTINUOUS
 62
   132
100
AcDbLine
 10
82.728833
 20
-48.581667
 30
0.0
 11
83.728833
 21
-48.581667
 31
0.0
  0
LINE
  5
FD
100
AcDbEntity
  8
1
  6
CONTINUOUS
 62
   132
100
AcDbLine
 10
82.728833
 20
-50.581667
 30
0.0
 11
83.728833
 21
-50.581667
 31
0.0
  0
LINE
  5
FE
100
AcDbEntity
  8
1
  6
CONTINUOUS
 62
   132
100
AcDbLine
 10
83.728833
 20
-48.581667
 30
0.0
 11
83.728833
 21
-50.581667
 31
0.0
  0
LINE
  5
FF
100
AcDbEntity
  8
1
  6
CONTINUOUS
 62
   132
100
AcDbLine
 10
75.478833
 20
-48.581667
 30
0.0
 11
75.478833
 21
-50.581667
 31
0.0
  0
LINE
  5
100
100
AcDbEntity
  8
1
  6
CONTINUOUS
 62
   132
100
AcDbLine
 10
76.478833
 20
-48.581667
 30
0.0
 11
75.478833
 21
-48.581667
 31
0.0
  0
LINE
  5
101
100
AcDbEntity
  8
1
  6
CONTINUOUS
 62
   132
100
AcDbLine
 10
76.478833
 20
-50.581667
 30
0.0
 11
75.478833
 21
-50.581667
 31
0.0
  0
LINE
  5
102
100
AcDbEntity
  8
1
  6
CONTINUOUS
 62
     7
100
AcDbLine
 10
79.603833
 20
-49.581667
 30
0.0
 11
73.478833
 21
-49.581667
 31
0.0
  0
LINE
  5
103
100
AcDbEntity
  8
1
  6
CONTINUOUS
 62
     7
100
AcDbLine
 10
86.728833
 20
-49.581667
 30
0.0
 11
81.603833
 21
-49.581667
 31
0.0
  0
LINE
  5
104
100
AcDbEntity
  8
1
  6
CONTINUOUS
 62
     7
100
AcDbLine
 10
81.103833
 20
-49.581667
 30
0.0
 11
80.103833
 21
-49.581667
 31
0.0
  0
LINE
  5
105
100
AcDbEntity
  8
1
  6
CONTINUOUS
 62
     7
100
AcDbLine
 10
74.478833
 20
-71.456667
 30
0.0
 11
79.603833
 21
-71.456667
 31
0.0
  0
LINE
  5
106
100
AcDbEntity
  8
1
  6
CONTINUOUS
 62
     7
100
AcDbLine
 10
80.103833
 20
-71.456667
 30
0.0
 11
81.103833
 21
-71.456667
 31
0.0
  0
LINE
  5
107
100
AcDbEntity
  8
1
  6
CONTINUOUS
 62
     7
100
AcDbLine
 10
81.603833
 20
-71.456667
 30
0.0
 11
86.728833
 21
-71.456667
 31
0.0
  0
LINE
  5
108
100
AcDbEntity
  8
1
  6
HIDDEN
 62
   132
100
AcDbLine
 10
78.228833
 20
-93.956667
 30
0.0
 11
82.728833
 21
-93.956667
 31
0.0
  0
LINE
  5
109
100
AcDbEntity
  8
1
  6
HIDDEN
 62
   132
100
AcDbLine
 10
78.228833
 20
-92.706667
 30
0.0
 11
82.728833
 21
-92.706667
 31
0.0
  0
LINE
  5
10A
100
AcDbEntity
  8
1
  6
CONTINUOUS
 62
   132
100
AcDbLine
 10
82.728833
 20
-94.331667
 30
0.0
 11
83.728833
 21
-94.331667
 31
0.0
  0
LINE
  5
10B
100
AcDbEntity
  8
1
  6
CONTINUOUS
 62
   132
100
AcDbLine
 10
82.728833
 20
-92.331667
 30
0.0
 11
83.728833
 21
-92.331667
 31
0.0
  0
LINE
  5
10C
100
AcDbEntity
  8
1
  6
CONTINUOUS
 62
   132
100
AcDbLine
 10
83.728833
 20
-94.331667
 30
0.0
 11
83.728833
 21
-92.331667
 31
0.0
  0
LINE
  5
10D
100
AcDbEntity
  8
1
  6
CONTINUOUS
 62
   132
100
AcDbLine
 10
75.478833
 20
-94.331667
 30
0.0
 11
75.478833
 21
-92.331667
 31
0.0
  0
LINE
  5
10E
100
AcDbEntity
  8
1
  6
CONTINUOUS
 62
   132
100
AcDbLine
 10
76.478833
 20
-94.331667
 30
0.0
 11
75.478833
 21
-94.331667
 31
0.0
  0
LINE
  5
10F
100
AcDbEntity
  8
1
  6
CONTINUOUS
 62
   132
100
AcDbLine
 10
76.478833
 20
-92.331667
 30
0.0
 11
75.478833
 21
-92.331667
 31
0.0
  0
LINE
  5
110
100
AcDbEntity
  8
1
  6
CONTINUOUS
 62
     7
100
AcDbLine
 10
79.603833
 20
-93.331667
 30
0.0
 11
73.478833
 21
-93.331667
 31
0.0
  0
LINE
  5
111
100
AcDbEntity
  8
1
  6
CONTINUOUS
 62
     7
100
AcDbLine
 10
86.728833
 20
-93.331667
 30
0.0
 11
81.603833
 21
-93.331667
 31
0.0
  0
LINE
  5
112
100
AcDbEntity
  8
1
  6
CONTINUOUS
 62
     7
100
AcDbLine
 10
81.103833
 20
-93.331667
 30
0.0
 11
80.103833
 21
-93.331667
 31
0.0
  0
LINE
  5
113
100
AcDbEntity
  8
1
  6
CONTINUOUS
 62
     7
100
AcDbLine
 10
78.478833
 20
-44.456667
 30
0.0
 11
102.478833
 21
-44.456667
 31
0.0
  0
LINE
  5
114
100
AcDbEntity
  8
1
  6
CONTINUOUS
 62
     7
100
AcDbLine
 10
83.728833
 20
-46.956667
 30
0.0
 11
102.478833
 21
-46.956667
 31
0.0
  0
LINE
  5
115
100
AcDbEntity
  8
1
  6
CONTINUOUS
 62
     7
100
AcDbLine
 10
101.478833
 20
-44.456667
 30
0.0
 11
101.478833
 21
-39.456667
 31
0.0
  0
LINE
  5
116
100
AcDbEntity
  8
1
  6
CONTINUOUS
 62
     7
100
AcDbLine
 10
101.478833
 20
-46.956667
 30
0.0
 11
101.478833
 21
-51.956667
 31
0.0
  0
INSERT
  5
117
100
AcDbEntity
  8
1
  6
CONTINUOUS
 62
     1
100
AcDbBlockReference
  2
LDR
 10
101.478833
 20
-46.956667
 30
0.0
 41
240.0
 42
240.0
 50
90.0
210
0.0
220
0.0
230
1.0
  0
INSERT
  5
118
100
AcDbEntity
  8
1
  6
CONTINUOUS
 62
     1
100
AcDbBlockReference
  2
LDR
 10
101.478833
 20
-44.456667
 30
0.0
 41
240.0
 42
240.0
 50
270.0
210
0.0
220
0.0
230
1.0
  0
LINE
  5
119
100
AcDbEntity
  8
1
  6
CONTINUOUS
 62
   132
100
AcDbLine
 10
164.451167
 20
25.543333
 30
0.0
 11
203.451167
 21
25.543333
 31
0.0
  0
LINE
  5
11A
100
AcDbEntity
  8
1
  6
CONTINUOUS
 62
   132
100
AcDbLine
 10
203.451167
 20
25.543333
 30
0.0
 11
203.451167
 21
-28.456667
 31
0.0
  0
LINE
  5
11B
100
AcDbEntity
  8
1
  6
CONTINUOUS
 62
   132
100
AcDbLine
 10
203.451167
 20
-28.456667
 30
0.0
 11
164.451167
 21
-28.456667
 31
0.0
  0
LINE
  5
11C
100
AcDbEntity
  8
1
  6
CONTINUOUS
 62
   132
100
AcDbLine
 10
164.451167
 20
-28.456667
 30
0.0
 11
164.451167
 21
25.543333
 31
0.0
  0
LINE
  5
11D
100
AcDbEntity
  8
1
  6
CONTINUOUS
 62
     7
100
AcDbLine
 10
183.951167
 20
-0.456667
 30
0.0
 11
183.951167
 21
-2.456667
 31
0.0
  0
CIRCLE
  5
11E
100
AcDbEntity
  8
1
  6
CONTINUOUS
 62
   132
100
AcDbCircle
 10
183.951167
 20
19.543333
 30
0.0
 40
1.0
210
0.0
220
0.0
230
1.0
  0
LINE
  5
11F
100
AcDbEntity
  8
1
  6
CONTINUOUS
 62
     7
100
AcDbLine
 10
183.951167
 20
35.543333
 30
0.0
 11
183.951167
 21
21.543333
 31
0.0
  0
LINE
  5
120
100
AcDbEntity
  8
1
  6
CONTINUOUS
 62
     7
100
AcDbLine
 10
177.951167
 20
19.543333
 30
0.0
 11
181.951167
 21
19.543333
 31
0.0
  0
LINE
  5
121
100
AcDbEntity
  8
1
  6
CONTINUOUS
 62
     7
100
AcDbLine
 10
183.951167
 20
20.043333
 30
0.0
 11
183.951167
 21
19.043333
 31
0.0
  0
LINE
  5
122
100
AcDbEntity
  8
1
  6
CONTINUOUS
 62
     7
100
AcDbLine
 10
183.951167
 20
17.543333
 30
0.0
 11
183.951167
 21
0.543333
 31
0.0
  0
LINE
  5
123
100
AcDbEntity
  8
1
  6
CONTINUOUS
 62
     7
100
AcDbLine
 10
183.451167
 20
19.543333
 30
0.0
 11
184.451167
 21
19.543333
 31
0.0
  0
CIRCLE
  5
124
100
AcDbEntity
  8
1
  6
CONTINUOUS
 62
   132
100
AcDbCircle
 10
183.951167
 20
-22.456667
 30
0.0
 40
1.0
210
0.0
220
0.0
230
1.0
  0
LINE
  5
125
100
AcDbEntity
  8
1
  6
CONTINUOUS
 62
     7
100
AcDbLine
 10
183.951167
 20
-34.456667
 30
0.0
 11
183.951167
 21
-24.456667
 31
0.0
  0
LINE
  5
126
100
AcDbEntity
  8
1
  6
CONTINUOUS
 62
     7
100
AcDbLine
 10
177.951167
 20
-22.456667
 30
0.0
 11
181.951167
 21
-22.456667
 31
0.0
  0
LINE
  5
127
100
AcDbEntity
  8
1
  6
CONTINUOUS
 62
     7
100
AcDbLine
 10
183.951167
 20
-22.956667
 30
0.0
 11
183.951167
 21
-21.956667
 31
0.0
  0
LINE
  5
128
100
AcDbEntity
  8
1
  6
CONTINUOUS
 62
     7
100
AcDbLine
 10
183.951167
 20
-20.456667
 30
0.0
 11
183.951167
 21
-3.456667
 31
0.0
  0
LINE
  5
129
100
AcDbEntity
  8
1
  6
CONTINUOUS
 62
     7
100
AcDbLine
 10
183.451167
 20
-22.456667
 30
0.0
 11
184.451167
 21
-22.456667
 31
0.0
  0
LINE
  5
12A
100
AcDbEntity
  8
1
  6
CONTINUOUS
 62
     7
100
AcDbLine
 10
203.451167
 20
26.543333
 30
0.0
 11
203.451167
 21
35.543333
 31
0.0
  0
LINE
  5
12B
100
AcDbEntity
  8
1
  6
CONTINUOUS
 62
     7
100
AcDbLine
 10
185.951167
 20
-22.456667
 30
0.0
 11
195.451167
 21
-22.456667
 31
0.0
  0
LINE
  5
12C
100
AcDbEntity
  8
1
  6
CONTINUOUS
 62
     7
100
AcDbLine
 10
185.951167
 20
19.543333
 30
0.0
 11
195.451167
 21
19.543333
 31
0.0
  0
LINE
  5
12D
100
AcDbEntity
  8
1
  6
CONTINUOUS
 62
     7
100
AcDbLine
 10
183.951167
 20
34.543333
 30
0.0
 11
203.451167
 21
34.543333
 31
0.0
  0
INSERT
  5
12E
100
AcDbEntity
  8
1
  6
CONTINUOUS
 62
     1
100
AcDbBlockReference
  2
LDR
 10
183.951167
 20
34.543333
 30
0.0
 41
240.0
 42
240.0
 50
180.0
210
0.0
220
0.0
230
1.0
  0
INSERT
  5
12F
100
AcDbEntity
  8
1
  6
CONTINUOUS
 62
     1
100
AcDbBlockReference
  2
LDR
 10
203.451167
 20
34.543333
 30
0.0
 41
240.0
 42
240.0
210
0.0
220
0.0
230
1.0
  0
LINE
  5
130
100
AcDbEntity
  8
1
  6
CONTINUOUS
 62
   132
100
AcDbLine
 10
164.451167
 20
-44.456667
 30
0.0
 11
203.451167
 21
-44.456667
 31
0.0
  0
LINE
  5
131
100
AcDbEntity
  8
1
  6
CONTINUOUS
 62
   132
100
AcDbLine
 10
203.451167
 20
-44.456667
 30
0.0
 11
203.451167
 21
-98.456667
 31
0.0
  0
LINE
  5
132
100
AcDbEntity
  8
1
  6
CONTINUOUS
 62
   132
100
AcDbLine
 10
203.451167
 20
-98.456667
 30
0.0
 11
164.451167
 21
-98.456667
 31
0.0
  0
LINE
  5
133
100
AcDbEntity
  8
1
  6
CONTINUOUS
 62
   132
100
AcDbLine
 10
164.451167
 20
-98.456667
 30
0.0
 11
164.451167
 21
-44.456667
 31
0.0
  0
LINE
  5
134
100
AcDbEntity
  8
1
  6
CONTINUOUS
 62
     7
100
AcDbLine
 10
183.951167
 20
-70.456667
 30
0.0
 11
183.951167
 21
-72.456667
 31
0.0
  0
CIRCLE
  5
135
100
AcDbEntity
  8
1
  6
CONTINUOUS
 62
   132
100
AcDbCircle
 10
183.951167
 20
-50.456667
 30
0.0
 40
1.0
210
0.0
220
0.0
230
1.0
  0
LINE
  5
136
100
AcDbEntity
  8
1
  6
CONTINUOUS
 62
     7
100
AcDbLine
 10
183.951167
 20
-43.456667
 30
0.0
 11
183.951167
 21
-48.456667
 31
0.0
  0
LINE
  5
137
100
AcDbEntity
  8
1
  6
CONTINUOUS
 62
     7
100
AcDbLine
 10
177.951167
 20
-50.456667
 30
0.0
 11
181.951167
 21
-50.456667
 31
0.0
  0
LINE
  5
138
100
AcDbEntity
  8
1
  6
CONTINUOUS
 62
     7
100
AcDbLine
 10
183.951167
 20
-49.956667
 30
0.0
 11
183.951167
 21
-50.956667
 31
0.0
  0
LINE
  5
139
100
AcDbEntity
  8
1
  6
CONTINUOUS
 62
     7
100
AcDbLine
 10
183.951167
 20
-52.456667
 30
0.0
 11
183.951167
 21
-69.456667
 31
0.0
  0
LINE
  5
13A
100
AcDbEntity
  8
1
  6
CONTINUOUS
 62
     7
100
AcDbLine
 10
183.451167
 20
-50.456667
 30
0.0
 11
184.451167
 21
-50.456667
 31
0.0
  0
CIRCLE
  5
13B
100
AcDbEntity
  8
1
  6
CONTINUOUS
 62
   132
100
AcDbCircle
 10
183.951167
 20
-92.456667
 30
0.0
 40
1.0
210
0.0
220
0.0
230
1.0
  0
LINE
  5
13C
100
AcDbEntity
  8
1
  6
CONTINUOUS
 62
     7
100
AcDbLine
 10
183.951167
 20
-112.721
 30
0.0
 11
183.951167
 21
-94.456667
 31
0.0
  0
LINE
  5
13D
100
AcDbEntity
  8
1
  6
CONTINUOUS
 62
     7
100
AcDbLine
 10
177.951167
 20
-92.456667
 30
0.0
 11
181.951167
 21
-92.456667
 31
0.0
  0
LINE
  5
13E
100
AcDbEntity
  8
1
  6
CONTINUOUS
 62
     7
100
AcDbLine
 10
183.951167
 20
-92.956667
 30
0.0
 11
183.951167
 21
-91.956667
 31
0.0
  0
LINE
  5
13F
100
AcDbEntity
  8
1
  6
CONTINUOUS
 62
     7
100
AcDbLine
 10
183.951167
 20
-90.456667
 30
0.0
 11
183.951167
 21
-73.456667
 31
0.0
  0
LINE
  5
140
100
AcDbEntity
  8
1
  6
CONTINUOUS
 62
     7
100
AcDbLine
 10
183.451167
 20
-92.456667
 30
0.0
 11
184.451167
 21
-92.456667
 31
0.0
  0
LINE
  5
141
100
AcDbEntity
  8
1
  6
CONTINUOUS
 62
     7
100
AcDbLine
 10
185.951167
 20
-92.456667
 30
0.0
 11
189.951167
 21
-92.456667
 31
0.0
  0
LINE
  5
142
100
AcDbEntity
  8
1
  6
CONTINUOUS
 62
     7
100
AcDbLine
 10
185.951167
 20
-50.456667
 30
0.0
 11
189.951167
 21
-50.456667
 31
0.0
  0
LINE
  5
143
100
AcDbEntity
  8
1
  6
HIDDEN
 62
   132
100
AcDbLine
 10
180.451167
 20
-46.956667
 30
0.0
 11
187.451167
 21
-46.956667
 31
0.0
  0
LINE
  5
144
100
AcDbEntity
  8
1
  6
HIDDEN
 62
   132
100
AcDbLine
 10
180.451167
 20
-46.956667
 30
0.0
 11
180.451167
 21
-98.456667
 31
0.0
  0
LINE
  5
145
100
AcDbEntity
  8
1
  6
HIDDEN
 62
   132
100
AcDbLine
 10
187.451167
 20
-46.956667
 30
0.0
 11
187.451167
 21
-98.456667
 31
0.0
  0
LINE
  5
146
100
AcDbEntity
  8
1
  6
HIDDEN
 62
   132
100
AcDbLine
 10
181.701167
 20
-46.956667
 30
0.0
 11
181.701167
 21
-98.456667
 31
0.0
  0
LINE
  5
147
100
AcDbEntity
  8
1
  6
HIDDEN
 62
   132
100
AcDbLine
 10
186.201167
 20
-46.956667
 30
0.0
 11
186.201167
 21
-98.456667
 31
0.0
  0
LINE
  5
148
100
AcDbEntity
  8
1
  6
CONTINUOUS
 62
   132
100
AcDbLine
 10
180.451167
 20
-98.456667
 30
0.0
 11
180.451167
 21
-111.456667
 31
0.0
  0
LINE
  5
149
100
AcDbEntity
  8
1
  6
CONTINUOUS
 62
   132
100
AcDbLine
 10
181.701167
 20
-98.456667
 30
0.0
 11
181.701167
 21
-111.456667
 31
0.0
  0
LINE
  5
14A
100
AcDbEntity
  8
1
  6
CONTINUOUS
 62
   132
100
AcDbLine
 10
186.201167
 20
-98.456667
 30
0.0
 11
186.201167
 21
-111.456667
 31
0.0
  0
LINE
  5
14B
100
AcDbEntity
  8
1
  6
CONTINUOUS
 62
   132
100
AcDbLine
 10
187.451167
 20
-98.456667
 30
0.0
 11
187.451167
 21
-111.456667
 31
0.0
  0
LINE
  5
14C
100
AcDbEntity
  8
1
  6
CONTINUOUS
 62
   132
100
AcDbLine
 10
203.451167
 20
-129.456667
 30
0.0
 11
164.451167
 21
-129.456667
 31
0.0
  0
LINE
  5
14D
100
AcDbEntity
  8
1
  6
CONTINUOUS
 62
   132
100
AcDbLine
 10
203.451167
 20
-128.456667
 30
0.0
 11
164.451167
 21
-128.456667
 31
0.0
  0
LINE
  5
14E
100
AcDbEntity
  8
1
  6
CONTINUOUS
 62
   132
100
AcDbLine
 10
164.451167
 20
-128.456667
 30
0.0
 11
164.451167
 21
-129.456667
 31
0.0
  0
LINE
  5
14F
100
AcDbEntity
  8
1
  6
CONTINUOUS
 62
   132
100
AcDbLine
 10
203.451167
 20
-128.456667
 30
0.0
 11
203.451167
 21
-129.456667
 31
0.0
  0
LINE
  5
150
100
AcDbEntity
  8
1
  6
CONTINUOUS
 62
   132
100
AcDbLine
 10
184.951167
 20
-130.456667
 30
0.0
 11
182.951167
 21
-130.456667
 31
0.0
  0
LINE
  5
151
100
AcDbEntity
  8
1
  6
CONTINUOUS
 62
   132
100
AcDbLine
 10
182.951167
 20
-130.456667
 30
0.0
 11
182.951167
 21
-129.456667
 31
0.0
  0
LINE
  5
152
100
AcDbEntity
  8
1
  6
CONTINUOUS
 62
   132
100
AcDbLine
 10
184.951167
 20
-130.456667
 30
0.0
 11
184.951167
 21
-129.456667
 31
0.0
  0
LINE
  5
153
100
AcDbEntity
  8
1
  6
CONTINUOUS
 62
   132
100
AcDbLine
 10
181.451167
 20
-127.706667
 30
0.0
 11
181.451167
 21
-128.456667
 31
0.0
  0
LINE
  5
154
100
AcDbEntity
  8
1
  6
CONTINUOUS
 62
   132
100
AcDbLine
 10
186.451167
 20
-127.706667
 30
0.0
 11
186.451167
 21
-128.456667
 31
0.0
  0
LINE
  5
155
100
AcDbEntity
  8
1
  6
CONTINUOUS
 62
   132
100
AcDbLine
 10
181.451167
 20
-127.706667
 30
0.0
 11
182.162833
 21
-127.706667
 31
0.0
  0
LINE
  5
156
100
AcDbEntity
  8
1
  6
CONTINUOUS
 62
   132
100
AcDbLine
 10
185.739417
 20
-127.706667
 30
0.0
 11
186.451167
 21
-127.706667
 31
0.0
  0
LINE
  5
157
100
AcDbEntity
  8
1
  6
CONTINUOUS
 62
   132
100
AcDbLine
 10
182.698583
 20
-123.956667
 30
0.0
 11
185.203667
 21
-123.956667
 31
0.0
  0
LINE
  5
158
100
AcDbEntity
  8
1
  6
CONTINUOUS
 62
   132
100
AcDbLine
 10
182.698583
 20
-123.956667
 30
0.0
 11
182.162833
 21
-127.706667
 31
0.0
  0
LINE
  5
159
100
AcDbEntity
  8
1
  6
CONTINUOUS
 62
   132
100
AcDbLine
 10
185.203667
 20
-123.956667
 30
0.0
 11
185.739417
 21
-127.706667
 31
0.0
  0
LINE
  5
15A
100
AcDbEntity
  8
1
  6
CONTINUOUS
 62
   132
100
AcDbLine
 10
183.349
 20
-124.706667
 30
0.0
 11
182.81325
 21
-128.456667
 31
0.0
  0
LINE
  5
15B
100
AcDbEntity
  8
1
  6
CONTINUOUS
 62
   132
100
AcDbLine
 10
184.553167
 20
-124.706667
 30
0.0
 11
185.088917
 21
-128.456667
 31
0.0
  0
LINE
  5
15C
100
AcDbEntity
  8
1
  6
CONTINUOUS
 62
   132
100
AcDbLine
 10
183.349
 20
-124.706667
 30
0.0
 11
184.553167
 21
-124.706667
 31
0.0
  0
LINE
  5
15D
100
AcDbEntity
  8
1
  6
CONTINUOUS
 62
   132
100
AcDbLine
 10
184.951167
 20
-122.95275
 30
0.0
 11
182.951167
 21
-122.95275
 31
0.0
  0
LINE
  5
15E
100
AcDbEntity
  8
1
  6
CONTINUOUS
 62
   132
100
AcDbLine
 10
182.951167
 20
-122.95275
 30
0.0
 11
182.951167
 21
-123.95275
 31
0.0
  0
LINE
  5
15F
100
AcDbEntity
  8
1
  6
CONTINUOUS
 62
   132
100
AcDbLine
 10
184.951167
 20
-122.95275
 30
0.0
 11
184.951167
 21
-123.95275
 31
0.0
  0
LINE
  5
160
100
AcDbEntity
  8
1
  6
CONTINUOUS
 62
   132
100
AcDbLine
 10
183.576167
 20
-128.456667
 30
0.0
 11
183.576167
 21
-124.706667
 31
0.0
  0
LINE
  5
161
100
AcDbEntity
  8
1
  6
CONTINUOUS
 62
   132
100
AcDbLine
 10
184.326167
 20
-128.456667
 30
0.0
 11
184.326167
 21
-124.706667
 31
0.0
  0
LINE
  5
162
100
AcDbEntity
  8
1
  6
CONTINUOUS
 62
     7
100
AcDbLine
 10
183.951167
 20
-125.581667
 30
0.0
 11
183.951167
 21
-120.95275
 31
0.0
  0
LINE
  5
163
100
AcDbEntity
  8
1
  6
CONTINUOUS
 62
     7
100
AcDbLine
 10
183.951167
 20
-133.456667
 30
0.0
 11
183.951167
 21
-127.581667
 31
0.0
  0
LINE
  5
164
100
AcDbEntity
  8
1
  6
CONTINUOUS
 62
     7
100
AcDbLine
 10
183.951167
 20
-127.081667
 30
0.0
 11
183.951167
 21
-126.081667
 31
0.0
  0
LINE
  5
165
100
AcDbEntity
  8
1
  6
CONTINUOUS
 62
     7
100
AcDbLine
 10
174.966
 20
-129.579
 30
0.0
 11
179.652
 21
-138.122333
 31
0.0
  0
LINE
  5
166
100
AcDbEntity
  8
1
  6
CONTINUOUS
 62
     7
100
AcDbLine
 10
179.652
 20
-138.122333
 30
0.0
 11
186.415667
 21
-138.122333
 31
0.0
  0
INSERT
  5
167
100
AcDbEntity
  8
1
  6
CONTINUOUS
 62
     1
100
AcDbBlockReference
  2
LDR
 10
174.966
 20
-129.579
 30
0.0
 41
239.999999
 42
239.999999
 50
118.744674
210
0.0
220
0.0
230
1.0
  0
LINE
  5
168
100
AcDbEntity
  8
1
  6
CONTINUOUS
 62
   132
100
AcDbLine
 10
230.451167
 20
-44.456667
 30
0.0
 11
230.451167
 21
-98.456667
 31
0.0
  0
LINE
  5
169
100
AcDbEntity
  8
1
  6
CONTINUOUS
 62
   132
100
AcDbLine
 10
231.451167
 20
-44.456667
 30
0.0
 11
231.451167
 21
-98.456667
 31
0.0
  0
LINE
  5
16A
100
AcDbEntity
  8
1
  6
CONTINUOUS
 62
   132
100
AcDbLine
 10
230.451167
 20
-44.456667
 30
0.0
 11
231.451167
 21
-44.456667
 31
0.0
  0
LINE
  5
16B
100
AcDbEntity
  8
1
  6
CONTINUOUS
 62
   132
100
AcDbLine
 10
230.451167
 20
-98.456667
 30
0.0
 11
231.451167
 21
-98.456667
 31
0.0
  0
LINE
  5
16C
100
AcDbEntity
  8
1
  6
CONTINUOUS
 62
   132
100
AcDbLine
 10
232.201167
 20
-46.956667
 30
0.0
 11
232.201167
 21
-110.956667
 31
0.0
  0
LINE
  5
16D
100
AcDbEntity
  8
1
  6
CONTINUOUS
 62
   132
100
AcDbLine
 10
233.201167
 20
-46.956667
 30
0.0
 11
233.201167
 21
-110.956667
 31
0.0
  0
LINE
  5
16E
100
AcDbEntity
  8
1
  6
CONTINUOUS
 62
   132
100
AcDbLine
 10
236.701167
 20
-46.956667
 30
0.0
 11
236.701167
 21
-110.956667
 31
0.0
  0
LINE
  5
16F
100
AcDbEntity
  8
1
  6
CONTINUOUS
 62
   132
100
AcDbLine
 10
232.201167
 20
-46.956667
 30
0.0
 11
236.701167
 21
-46.956667
 31
0.0
  0
LINE
  5
170
100
AcDbEntity
  8
1
  6
HIDDEN
 62
   132
100
AcDbLine
 10
232.201167
 20
-48.956667
 30
0.0
 11
236.701167
 21
-48.956667
 31
0.0
  0
LINE
  5
171
100
AcDbEntity
  8
1
  6
HIDDEN
 62
   132
100
AcDbLine
 10
232.201167
 20
-50.206667
 30
0.0
 11
236.701167
 21
-50.206667
 31
0.0
  0
LINE
  5
172
100
AcDbEntity
  8
1
  6
CONTINUOUS
 62
   132
100
AcDbLine
 10
236.701167
 20
-48.581667
 30
0.0
 11
237.701167
 21
-48.581667
 31
0.0
  0
LINE
  5
173
100
AcDbEntity
  8
1
  6
CONTINUOUS
 62
   132
100
AcDbLine
 10
236.701167
 20
-50.581667
 30
0.0
 11
237.701167
 21
-50.581667
 31
0.0
  0
LINE
  5
174
100
AcDbEntity
  8
1
  6
CONTINUOUS
 62
   132
100
AcDbLine
 10
237.701167
 20
-48.581667
 30
0.0
 11
237.701167
 21
-50.581667
 31
0.0
  0
LINE
  5
175
100
AcDbEntity
  8
1
  6
CONTINUOUS
 62
   132
100
AcDbLine
 10
229.451167
 20
-48.581667
 30
0.0
 11
229.451167
 21
-50.581667
 31
0.0
  0
LINE
  5
176
100
AcDbEntity
  8
1
  6
CONTINUOUS
 62
   132
100
AcDbLine
 10
230.451167
 20
-48.581667
 30
0.0
 11
229.451167
 21
-48.581667
 31
0.0
  0
LINE
  5
177
100
AcDbEntity
  8
1
  6
CONTINUOUS
 62
   132
100
AcDbLine
 10
230.451167
 20
-50.581667
 30
0.0
 11
229.451167
 21
-50.581667
 31
0.0
  0
LINE
  5
178
100
AcDbEntity
  8
1
  6
CONTINUOUS
 62
     7
100
AcDbLine
 10
233.576167
 20
-49.581667
 30
0.0
 11
227.451167
 21
-49.581667
 31
0.0
  0
LINE
  5
179
100
AcDbEntity
  8
1
  6
CONTINUOUS
 62
     7
100
AcDbLine
 10
240.701167
 20
-49.581667
 30
0.0
 11
235.576167
 21
-49.581667
 31
0.0
  0
LINE
  5
17A
100
AcDbEntity
  8
1
  6
CONTINUOUS
 62
     7
100
AcDbLine
 10
235.076167
 20
-49.581667
 30
0.0
 11
234.076167
 21
-49.581667
 31
0.0
  0
LINE
  5
17B
100
AcDbEntity
  8
1
  6
CONTINUOUS
 62
     7
100
AcDbLine
 10
228.451167
 20
-71.456667
 30
0.0
 11
233.576167
 21
-71.456667
 31
0.0
  0
LINE
  5
17C
100
AcDbEntity
  8
1
  6
CONTINUOUS
 62
     7
100
AcDbLine
 10
234.076167
 20
-71.456667
 30
0.0
 11
235.076167
 21
-71.456667
 31
0.0
  0
LINE
  5
17D
100
AcDbEntity
  8
1
  6
CONTINUOUS
 62
     7
100
AcDbLine
 10
235.576167
 20
-71.456667
 30
0.0
 11
240.701167
 21
-71.456667
 31
0.0
  0
LINE
  5
17E
100
AcDbEntity
  8
1
  6
HIDDEN
 62
   132
100
AcDbLine
 10
232.201167
 20
-93.956667
 30
0.0
 11
236.701167
 21
-93.956667
 31
0.0
  0
LINE
  5
17F
100
AcDbEntity
  8
1
  6
HIDDEN
 62
   132
100
AcDbLine
 10
232.201167
 20
-92.706667
 30
0.0
 11
236.701167
 21
-92.706667
 31
0.0
  0
LINE
  5
180
100
AcDbEntity
  8
1
  6
CONTINUOUS
 62
   132
100
AcDbLine
 10
236.701167
 20
-94.331667
 30
0.0
 11
237.701167
 21
-94.331667
 31
0.0
  0
LINE
  5
181
100
AcDbEntity
  8
1
  6
CONTINUOUS
 62
   132
100
AcDbLine
 10
236.701167
 20
-92.331667
 30
0.0
 11
237.701167
 21
-92.331667
 31
0.0
  0
LINE
  5
182
100
AcDbEntity
  8
1
  6
CONTINUOUS
 62
   132
100
AcDbLine
 10
237.701167
 20
-94.331667
 30
0.0
 11
237.701167
 21
-92.331667
 31
0.0
  0
LINE
  5
183
100
AcDbEntity
  8
1
  6
CONTINUOUS
 62
   132
100
AcDbLine
 10
229.451167
 20
-94.331667
 30
0.0
 11
229.451167
 21
-92.331667
 31
0.0
  0
LINE
  5
184
100
AcDbEntity
  8
1
  6
CONTINUOUS
 62
   132
100
AcDbLine
 10
230.451167
 20
-94.331667
 30
0.0
 11
229.451167
 21
-94.331667
 31
0.0
  0
LINE
  5
185
100
AcDbEntity
  8
1
  6
CONTINUOUS
 62
   132
100
AcDbLine
 10
230.451167
 20
-92.331667
 30
0.0
 11
229.451167
 21
-92.331667
 31
0.0
  0
LINE
  5
186
100
AcDbEntity
  8
1
  6
CONTINUOUS
 62
     7
100
AcDbLine
 10
233.576167
 20
-93.331667
 30
0.0
 11
227.451167
 21
-93.331667
 31
0.0
  0
LINE
  5
187
100
AcDbEntity
  8
1
  6
CONTINUOUS
 62
     7
100
AcDbLine
 10
240.701167
 20
-93.331667
 30
0.0
 11
235.576167
 21
-93.331667
 31
0.0
  0
LINE
  5
188
100
AcDbEntity
  8
1
  6
CONTINUOUS
 62
     7
100
AcDbLine
 10
235.076167
 20
-93.331667
 30
0.0
 11
234.076167
 21
-93.331667
 31
0.0
  0
LINE
  5
189
100
AcDbEntity
  8
1
  6
CONTINUOUS
 62
     7
100
AcDbLine
 10
232.451167
 20
-44.456667
 30
0.0
 11
256.451167
 21
-44.456667
 31
0.0
  0
LINE
  5
18A
100
AcDbEntity
  8
1
  6
CONTINUOUS
 62
     7
100
AcDbLine
 10
237.701167
 20
-46.956667
 30
0.0
 11
256.451167
 21
-46.956667
 31
0.0
  0
LINE
  5
18B
100
AcDbEntity
  8
1
  6
CONTINUOUS
 62
     7
100
AcDbLine
 10
255.451167
 20
-44.456667
 30
0.0
 11
255.451167
 21
-39.456667
 31
0.0
  0
LINE
  5
18C
100
AcDbEntity
  8
1
  6
CONTINUOUS
 62
     7
100
AcDbLine
 10
255.451167
 20
-46.956667
 30
0.0
 11
255.451167
 21
-51.956667
 31
0.0
  0
INSERT
  5
18D
100
AcDbEntity
  8
1
  6
CONTINUOUS
 62
     1
100
AcDbBlockReference
  2
LDR
 10
255.451167
 20
-46.956667
 30
0.0
 41
240.0
 42
240.0
 50
90.0
210
0.0
220
0.0
230
1.0
  0
INSERT
  5
18E
100
AcDbEntity
  8
1
  6
CONTINUOUS
 62
     1
100
AcDbBlockReference
  2
LDR
 10
255.451167
 20
-44.456667
 30
0.0
 41
240.0
 42
240.0
 50
270.0
210
0.0
220
0.0
230
1.0
  0
CIRCLE
  5
18F
100
AcDbEntity
  8
1
  6
CONTINUOUS
 62
   132
100
AcDbCircle
 10
170.451167
 20
-1.456667
 30
0.0
 40
1.0
210
0.0
220
0.0
230
1.0
  0
LINE
  5
190
100
AcDbEntity
  8
1
  6
CONTINUOUS
 62
     7
100
AcDbLine
 10
163.451167
 20
-1.456667
 30
0.0
 11
168.451167
 21
-1.456667
 31
0.0
  0
LINE
  5
191
100
AcDbEntity
  8
1
  6
CONTINUOUS
 62
     7
100
AcDbLine
 10
170.451167
 20
-0.956667
 30
0.0
 11
170.451167
 21
-1.956667
 31
0.0
  0
LINE
  5
192
100
AcDbEntity
  8
1
  6
CONTINUOUS
 62
     7
100
AcDbLine
 10
169.951167
 20
-1.456667
 30
0.0
 11
170.951167
 21
-1.456667
 31
0.0
  0
CIRCLE
  5
193
100
AcDbEntity
  8
1
  6
CONTINUOUS
 62
   132
100
AcDbCircle
 10
197.451167
 20
-1.456667
 30
0.0
 40
1.0
210
0.0
220
0.0
230
1.0
  0
LINE
  5
194
100
AcDbEntity
  8
1
  6
CONTINUOUS
 62
     7
100
AcDbLine
 10
197.451167
 20
-1.956667
 30
0.0
 11
197.451167
 21
-0.956667
 31
0.0
  0
LINE
  5
195
100
AcDbEntity
  8
1
  6
CONTINUOUS
 62
     7
100
AcDbLine
 10
196.951167
 20
-1.456667
 30
0.0
 11
197.951167
 21
-1.456667
 31
0.0
  0
LINE
  5
196
100
AcDbEntity
  8
1
  6
CONTINUOUS
 62
     7
100
AcDbLine
 10
199.451167
 20
-1.456667
 30
0.0
 11
220.451167
 21
-1.456667
 31
0.0
  0
LINE
  5
197
100
AcDbEntity
  8
1
  6
CONTINUOUS
 62
     7
100
AcDbLine
 10
170.451167
 20
0.543333
 30
0.0
 11
170.451167
 21
4.543333
 31
0.0
  0
LINE
  5
198
100
AcDbEntity
  8
1
  6
CONTINUOUS
 62
     7
100
AcDbLine
 10
197.451167
 20
0.543333
 30
0.0
 11
197.451167
 21
4.543333
 31
0.0
  0
LINE
  5
199
100
AcDbEntity
  8
1
  6
CONTINUOUS
 62
     7
100
AcDbLine
 10
172.451167
 20
-1.456667
 30
0.0
 11
181.951167
 21
-1.456667
 31
0.0
  0
LINE
  5
19A
100
AcDbEntity
  8
1
  6
CONTINUOUS
 62
     7
100
AcDbLine
 10
185.951167
 20
-1.456667
 30
0.0
 11
195.451167
 21
-1.456667
 31
0.0
  0
LINE
  5
19B
100
AcDbEntity
  8
1
  6
CONTINUOUS
 62
     7
100
AcDbLine
 10
182.951167
 20
-1.456667
 30
0.0
 11
184.951167
 21
-1.456667
 31
0.0
  0
LINE
  5
19C
100
AcDbEntity
  8
1
  6
CONTINUOUS
 62
     7
100
AcDbLine
 10
196.451167
 20
-22.456667
 30
0.0
 11
198.451167
 21
-22.456667
 31
0.0
  0
LINE
  5
19D
100
AcDbEntity
  8
1
  6
CONTINUOUS
 62
     7
100
AcDbLine
 10
204.451167
 20
-28.456667
 30
0.0
 11
220.451167
 21
-28.456667
 31
0.0
  0
LINE
  5
19E
100
AcDbEntity
  8
1
  6
CONTINUOUS
 62
     7
100
AcDbLine
 10
199.451167
 20
-22.456667
 30
0.0
 11
213.451167
 21
-22.456667
 31
0.0
  0
LINE
  5
19F
100
AcDbEntity
  8
1
  6
CONTINUOUS
 62
     7
100
AcDbLine
 10
196.451167
 20
19.543333
 30
0.0
 11
198.451167
 21
19.543333
 31
0.0
  0
LINE
  5
1A0
100
AcDbEntity
  8
1
  6
CONTINUOUS
 62
     7
100
AcDbLine
 10
199.451167
 20
19.543333
 30
0.0
 11
213.451167
 21
19.543333
 31
0.0
  0
LINE
  5
1A1
100
AcDbEntity
  8
1
  6
CONTINUOUS
 62
     7
100
AcDbLine
 10
170.451167
 20
-14.956667
 30
0.0
 11
170.451167
 21
-3.456667
 31
0.0
  0
LINE
  5
1A2
100
AcDbEntity
  8
1
  6
CONTINUOUS
 62
     7
100
AcDbLine
 10
170.451167
 20
-34.456667
 30
0.0
 11
170.451167
 21
-18.956667
 31
0.0
  0
LINE
  5
1A3
100
AcDbEntity
  8
1
  6
CONTINUOUS
 62
     7
100
AcDbLine
 10
170.451167
 20
-17.956667
 30
0.0
 11
170.451167
 21
-15.956667
 31
0.0
  0
LINE
  5
1A4
100
AcDbEntity
  8
1
  6
CONTINUOUS
 62
     7
100
AcDbLine
 10
197.451167
 20
-14.956667
 30
0.0
 11
197.451167
 21
-3.456667
 31
0.0
  0
LINE
  5
1A5
100
AcDbEntity
  8
1
  6
CONTINUOUS
 62
     7
100
AcDbLine
 10
197.451167
 20
-34.456667
 30
0.0
 11
197.451167
 21
-18.956667
 31
0.0
  0
LINE
  5
1A6
100
AcDbEntity
  8
1
  6
CONTINUOUS
 62
     7
100
AcDbLine
 10
197.451167
 20
-17.956667
 30
0.0
 11
197.451167
 21
-15.956667
 31
0.0
  0
LINE
  5
1A7
100
AcDbEntity
  8
1
  6
CONTINUOUS
 62
     7
100
AcDbLine
 10
219.451167
 20
-1.456667
 30
0.0
 11
219.451167
 21
-28.456667
 31
0.0
  0
LINE
  5
1A8
100
AcDbEntity
  8
1
  6
CONTINUOUS
 62
     7
100
AcDbLine
 10
212.451167
 20
-22.456667
 30
0.0
 11
212.451167
 21
-1.456667
 31
0.0
  0
LINE
  5
1A9
100
AcDbEntity
  8
1
  6
CONTINUOUS
 62
     7
100
AcDbLine
 10
212.451167
 20
-1.456667
 30
0.0
 11
212.451167
 21
19.543333
 31
0.0
  0
LINE
  5
1AA
100
AcDbEntity
  8
1
  6
CONTINUOUS
 62
     7
100
AcDbLine
 10
170.451167
 20
-33.456667
 30
0.0
 11
183.951167
 21
-33.456667
 31
0.0
  0
LINE
  5
1AB
100
AcDbEntity
  8
1
  6
CONTINUOUS
 62
     7
100
AcDbLine
 10
183.951167
 20
-33.456667
 30
0.0
 11
197.451167
 21
-33.456667
 31
0.0
  0
INSERT
  5
1AC
100
AcDbEntity
  8
1
  6
CONTINUOUS
 62
     1
100
AcDbBlockReference
  2
LDR
 10
212.451167
 20
19.543333
 30
0.0
 41
240.0
 42
240.0
 50
90.0
210
0.0
220
0.0
230
1.0
  0
INSERT
  5
1AD
100
AcDbEntity
  8
1
  6
CONTINUOUS
 62
     1
100
AcDbBlockReference
  2
LDR
 10
212.451167
 20
19.543333
 30
0.0
 41
240.0
 42
240.0
 50
90.0
210
0.0
220
0.0
230
1.0
  0
INSERT
  5
1AE
100
AcDbEntity
  8
1
  6
CONTINUOUS
 62
     1
100
AcDbBlockReference
  2
LDR
 10
212.451167
 20
-1.456667
 30
0.0
 41
240.0
 42
240.0
 50
270.0
210
0.0
220
0.0
230
1.0
  0
INSERT
  5
1AF
100
AcDbEntity
  8
1
  6
CONTINUOUS
 62
     1
100
AcDbBlockReference
  2
LDR
 10
212.451167
 20
-1.456667
 30
0.0
 41
240.0
 42
240.0
 50
270.0
210
0.0
220
0.0
230
1.0
  0
INSERT
  5
1B0
100
AcDbEntity
  8
1
  6
CONTINUOUS
 62
     1
100
AcDbBlockReference
  2
LDR
 10
212.451167
 20
-1.456667
 30
0.0
 41
240.0
 42
240.0
 50
90.0
210
0.0
220
0.0
230
1.0
  0
INSERT
  5
1B1
100
AcDbEntity
  8
1
  6
CONTINUOUS
 62
     1
100
AcDbBlockReference
  2
LDR
 10
212.451167
 20
-1.456667
 30
0.0
 41
240.0
 42
240.0
 50
90.0
210
0.0
220
0.0
230
1.0
  0
INSERT
  5
1B2
100
AcDbEntity
  8
1
  6
CONTINUOUS
 62
     1
100
AcDbBlockReference
  2
LDR
 10
212.451167
 20
-22.456667
 30
0.0
 41
240.0
 42
240.0
 50
270.0
210
0.0
220
0.0
230
1.0
  0
INSERT
  5
1B3
100
AcDbEntity
  8
1
  6
CONTINUOUS
 62
     1
100
AcDbBlockReference
  2
LDR
 10
212.451167
 20
-22.456667
 30
0.0
 41
240.0
 42
240.0
 50
270.0
210
0.0
220
0.0
230
1.0
  0
INSERT
  5
1B4
100
AcDbEntity
  8
1
  6
CONTINUOUS
 62
     1
100
AcDbBlockReference
  2
LDR
 10
219.451167
 20
-1.456667
 30
0.0
 41
240.0
 42
240.0
 50
90.0
210
0.0
220
0.0
230
1.0
  0
INSERT
  5
1B5
100
AcDbEntity
  8
1
  6
CONTINUOUS
 62
     1
100
AcDbBlockReference
  2
LDR
 10
219.451167
 20
-1.456667
 30
0.0
 41
240.0
 42
240.0
 50
90.0
210
0.0
220
0.0
230
1.0
  0
INSERT
  5
1B6
100
AcDbEntity
  8
1
  6
CONTINUOUS
 62
     1
100
AcDbBlockReference
  2
LDR
 10
219.451167
 20
-28.456667
 30
0.0
 41
240.0
 42
240.0
 50
270.0
210
0.0
220
0.0
230
1.0
  0
INSERT
  5
1B7
100
AcDbEntity
  8
1
  6
CONTINUOUS
 62
     1
100
AcDbBlockReference
  2
LDR
 10
219.451167
 20
-28.456667
 30
0.0
 41
240.0
 42
240.0
 50
270.0
210
0.0
220
0.0
230
1.0
  0
INSERT
  5
1B8
100
AcDbEntity
  8
1
  6
CONTINUOUS
 62
     1
100
AcDbBlockReference
  2
LDR
 10
170.451167
 20
-33.456667
 30
0.0
 41
240.0
 42
240.0
 50
180.0
210
0.0
220
0.0
230
1.0
  0
INSERT
  5
1B9
100
AcDbEntity
  8
1
  6
CONTINUOUS
 62
     1
100
AcDbBlockReference
  2
LDR
 10
170.451167
 20
-33.456667
 30
0.0
 41
240.0
 42
240.0
 50
180.0
210
0.0
220
0.0
230
1.0
  0
INSERT
  5
1BA
100
AcDbEntity
  8
1
  6
CONTINUOUS
 62
     1
100
AcDbBlockReference
  2
LDR
 10
183.951167
 20
-33.456667
 30
0.0
 41
240.0
 42
240.0
210
0.0
220
0.0
230
1.0
  0
INSERT
  5
1BB
100
AcDbEntity
  8
1
  6
CONTINUOUS
 62
     1
100
AcDbBlockReference
  2
LDR
 10
183.951167
 20
-33.456667
 30
0.0
 41
240.0
 42
240.0
210
0.0
220
0.0
230
1.0
  0
INSERT
  5
1BC
100
AcDbEntity
  8
1
  6
CONTINUOUS
 62
     1
100
AcDbBlockReference
  2
LDR
 10
183.951167
 20
-33.456667
 30
0.0
 41
240.0
 42
240.0
 50
180.0
210
0.0
220
0.0
230
1.0
  0
INSERT
  5
1BD
100
AcDbEntity
  8
1
  6
CONTINUOUS
 62
     1
100
AcDbBlockReference
  2
LDR
 10
183.951167
 20
-33.456667
 30
0.0
 41
240.0
 42
240.0
 50
180.0
210
0.0
220
0.0
230
1.0
  0
INSERT
  5
1BE
100
AcDbEntity
  8
1
  6
CONTINUOUS
 62
     1
100
AcDbBlockReference
  2
LDR
 10
197.451167
 20
-33.456667
 30
0.0
 41
240.0
 42
240.0
210
0.0
220
0.0
230
1.0
  0
LINE
  5
1BF
100
AcDbEntity
  8
1
  6
CONTINUOUS
 62
     7
100
AcDbLine
 10
182.951167
 20
-71.456667
 30
0.0
 11
184.951167
 21
-71.456667
 31
0.0
  0
CIRCLE
  5
1C0
100
AcDbEntity
  8
1
  6
CONTINUOUS
 62
   132
100
AcDbCircle
 10
170.451167
 20
-71.456667
 30
0.0
 40
1.0
210
0.0
220
0.0
230
1.0
  0
LINE
  5
1C1
100
AcDbEntity
  8
1
  6
CONTINUOUS
 62
     7
100
AcDbLine
 10
163.451167
 20
-71.456667
 30
0.0
 11
168.451167
 21
-71.456667
 31
0.0
  0
LINE
  5
1C2
100
AcDbEntity
  8
1
  6
CONTINUOUS
 62
     7
100
AcDbLine
 10
170.451167
 20
-70.956667
 30
0.0
 11
170.451167
 21
-71.956667
 31
0.0
  0
LINE
  5
1C3
100
AcDbEntity
  8
1
  6
CONTINUOUS
 62
     7
100
AcDbLine
 10
169.951167
 20
-71.456667
 30
0.0
 11
170.951167
 21
-71.456667
 31
0.0
  0
CIRCLE
  5
1C4
100
AcDbEntity
  8
1
  6
CONTINUOUS
 62
   132
100
AcDbCircle
 10
197.451167
 20
-71.456667
 30
0.0
 40
1.0
210
0.0
220
0.0
230
1.0
  0
LINE
  5
1C5
100
AcDbEntity
  8
1
  6
CONTINUOUS
 62
     7
100
AcDbLine
 10
197.451167
 20
-71.956667
 30
0.0
 11
197.451167
 21
-70.956667
 31
0.0
  0
LINE
  5
1C6
100
AcDbEntity
  8
1
  6
CONTINUOUS
 62
     7
100
AcDbLine
 10
196.951167
 20
-71.456667
 30
0.0
 11
197.951167
 21
-71.456667
 31
0.0
  0
LINE
  5
1C7
100
AcDbEntity
  8
1
  6
CONTINUOUS
 62
     7
100
AcDbLine
 10
199.451167
 20
-71.456667
 30
0.0
 11
204.451167
 21
-71.456667
 31
0.0
  0
LINE
  5
1C8
100
AcDbEntity
  8
1
  6
CONTINUOUS
 62
     7
100
AcDbLine
 10
170.451167
 20
-69.456667
 30
0.0
 11
170.451167
 21
-65.456667
 31
0.0
  0
LINE
  5
1C9
100
AcDbEntity
  8
1
  6
CONTINUOUS
 62
     7
100
AcDbLine
 10
197.451167
 20
-69.456667
 30
0.0
 11
197.451167
 21
-65.456667
 31
0.0
  0
LINE
  5
1CA
100
AcDbEntity
  8
1
  6
CONTINUOUS
 62
     7
100
AcDbLine
 10
172.451167
 20
-71.456667
 30
0.0
 11
181.951167
 21
-71.456667
 31
0.0
  0
LINE
  5
1CB
100
AcDbEntity
  8
1
  6
CONTINUOUS
 62
     7
100
AcDbLine
 10
185.951167
 20
-71.456667
 30
0.0
 11
195.451167
 21
-71.456667
 31
0.0
  0
LINE
  5
1CC
100
AcDbEntity
  8
1
  6
CONTINUOUS
 62
     7
100
AcDbLine
 10
170.451167
 20
-73.456667
 30
0.0
 11
170.451167
 21
-77.456667
 31
0.0
  0
LINE
  5
1CD
100
AcDbEntity
  8
1
  6
CONTINUOUS
 62
     7
100
AcDbLine
 10
197.451167
 20
-73.456667
 30
0.0
 11
197.451167
 21
-77.456667
 31
0.0
  0
LINE
  5
1CE
100
AcDbEntity
  8
1
  6
CONTINUOUS
 62
     7
100
AcDbLine
 10
230.451167
 20
-59.48675
 30
0.0
 11
222.249167
 21
-59.48675
 31
0.0
  0
INSERT
  5
1CF
100
AcDbEntity
  8
1
  6
CONTINUOUS
 62
     1
100
AcDbBlockReference
  2
LDR
 10
230.451167
 20
-59.48675
 30
0.0
 41
240.0
 42
240.0
210
0.0
220
0.0
230
1.0
  0
LINE
  5
1D0
100
AcDbEntity
  8
1
  6
CONTINUOUS
 62
     7
100
AcDbLine
 10
76.478833
 20
-59.48675
 30
0.0
 11
68.478833
 21
-59.48675
 31
0.0
  0
INSERT
  5
1D1
100
AcDbEntity
  8
1
  6
CONTINUOUS
 62
     1
100
AcDbBlockReference
  2
LDR
 10
76.478833
 20
-59.48675
 30
0.0
 41
240.0
 42
240.0
210
0.0
220
0.0
230
1.0
  0
LINE
  5
1D2
100
AcDbEntity
  8
1
  6
CONTINUOUS
 62
     7
100
AcDbLine
 10
170.451167
 20
-128.456667
 30
0.0
 11
170.451167
 21
-129.456667
 31
0.0
  0
LINE
  5
1D3
100
AcDbEntity
  8
1
  6
CONTINUOUS
 62
     7
100
AcDbLine
 10
197.451167
 20
-128.456667
 30
0.0
 11
197.451167
 21
-129.456667
 31
0.0
  0
LINE
  5
1D4
100
AcDbEntity
  8
1
  6
CONTINUOUS
 62
     7
100
AcDbLine
 10
170.451167
 20
-127.956667
 30
0.0
 11
170.451167
 21
-125.456667
 31
0.0
  0
LINE
  5
1D5
100
AcDbEntity
  8
1
  6
CONTINUOUS
 62
     7
100
AcDbLine
 10
197.451167
 20
-127.956667
 30
0.0
 11
197.451167
 21
-125.456667
 31
0.0
  0
LINE
  5
1D6
100
AcDbEntity
  8
1
  6
CONTINUOUS
 62
     7
100
AcDbLine
 10
170.451167
 20
-132.456667
 30
0.0
 11
170.451167
 21
-129.956667
 31
0.0
  0
LINE
  5
1D7
100
AcDbEntity
  8
1
  6
CONTINUOUS
 62
     7
100
AcDbLine
 10
197.451167
 20
-132.456667
 30
0.0
 11
197.451167
 21
-129.956667
 31
0.0
  0
TEXT
  5
1D8
100
AcDbEntity
  8
1
  6
CONTINUOUS
 62
     7
100
AcDbText
 10
39.009833
 20
35.191667
 30
0.0
 40
2.5
  1
B
  7
MONOTXT
210
0.0
220
0.0
230
1.0
100
AcDbText
  0
TEXT
  5
1D9
100
AcDbEntity
  8
1
  6
CONTINUOUS
 62
     7
100
AcDbText
 10
22.230417
 20
18.406833
 30
0.0
 40
2.5
  1
1
  7
MONOTXT
210
0.0
220
0.0
230
1.0
100
AcDbText
  0
TEXT
  5
1DA
100
AcDbEntity
  8
1
  6
CONTINUOUS
 62
     7
100
AcDbText
 10
21.7565
 20
-23.412917
 30
0.0
 40
2.5
  1
2
  7
MONOTXT
210
0.0
220
0.0
230
1.0
100
AcDbText
  0
TEXT
  5
1DB
100
AcDbEntity
  8
1
  6
CONTINUOUS
 62
     7
100
AcDbText
 10
59.107083
 20
8.639417
 30
0.0
 40
2.5
  1
A
  7
MONOTXT
210
0.0
220
0.0
230
1.0
100
AcDbText
  0
TEXT
  5
1DC
100
AcDbEntity
  8
1
  6
CONTINUOUS
 62
     7
100
AcDbText
 10
59.107083
 20
-12.317833
 30
0.0
 40
2.5
  1
A
  7
MONOTXT
210
0.0
220
0.0
230
1.0
100
AcDbText
  0
TEXT
  5
1DD
100
AcDbEntity
  8
1
  6
CONTINUOUS
 62
     7
100
AcDbText
 10
22.355917
 20
-51.667667
 30
0.0
 40
2.5
  1
1
  7
MONOTXT
210
0.0
220
0.0
230
1.0
100
AcDbText
  0
TEXT
  5
1DE
100
AcDbEntity
  8
1
  6
CONTINUOUS
 62
     7
100
AcDbText
 10
21.62
 20
-93.336083
 30
0.0
 40
2.5
  1
2
  7
MONOTXT
210
0.0
220
0.0
230
1.0
100
AcDbText
  0
TEXT
  5
1DF
100
AcDbEntity
  8
1
  6
CONTINUOUS
 62
     7
100
AcDbText
 10
87.414
 20
-94.36675
 30
0.0
 40
2.5
  1
2
  7
MONOTXT
210
0.0
220
0.0
230
1.0
100
AcDbText
  0
TEXT
  5
1E0
100
AcDbEntity
  8
1
  6
CONTINUOUS
 62
     7
100
AcDbText
 10
87.266833
 20
-50.48975
 30
0.0
 40
2.5
  1
1
  7
MONOTXT
210
0.0
220
0.0
230
1.0
100
AcDbText
  0
TEXT
  5
1E1
100
AcDbEntity
  8
1
  6
CONTINUOUS
 62
     7
100
AcDbText
 10
59.789667
 20
-60.827083
 30
0.0
 40
2.5
  1
SIGN
  7
MONOTXT
 72
     4
 11
63.579
 21
-59.577083
 31
0.0
210
0.0
220
0.0
230
1.0
100
AcDbText
  0
TEXT
  5
1E2
100
AcDbEntity
  8
1
  6
CONTINUOUS
 62
     7
100
AcDbText
 10
59.14
 20
-65.327083
 30
0.0
 40
2.5
  1
FACE
  7
MONOTXT
 72
     4
 11
63.578917
 21
-64.077083
 31
0.0
210
0.0
220
0.0
230
1.0
100
AcDbText
  0
TEXT
  5
1E3
100
AcDbEntity
  8
1
  6
CONTINUOUS
 62
     7
100
AcDbText
 10
27.067333
 20
-119.322083
 30
0.0
 40
2.5
  1
1, 2
  7
MONOTXT
 72
     4
 11
29.872417
 21
-118.072083
 31
0.0
210
0.0
220
0.0
230
1.0
100
AcDbText
  0
TEXT
  5
1E4
100
AcDbEntity
  8
1
  6
CONTINUOUS
 62
     7
100
AcDbText
 10
31.03975
 20
-138.90475
 30
0.0
 40
2.5
  1
SIGN FACE
  7
MONOTXT
 72
     4
 11
40.91175
 21
-137.65475
 31
0.0
210
0.0
220
0.0
230
1.0
100
AcDbText
  0
TEXT
  5
1E5
100
AcDbEntity
  8
1
  6
CONTINUOUS
 62
     7
100
AcDbText
 10
85.501833
 20
-38.193917
 30
0.0
 40
2.5
  1
GEN. NOTE 2.5.2
  7
MONOTXT
 72
     4
 11
101.259667
 21
-36.943917
 31
0.0
210
0.0
220
0.0
230
1.0
100
AcDbText
  0
TEXT
  5
1E6
100
AcDbEntity
  8
1
  6
CONTINUOUS
 62
     7
100
AcDbText
 10
192.761667
 20
35.282167
 30
0.0
 40
2.5
  1
B
  7
MONOTXT
 72
     4
 11
193.59825
 21
36.532167
 31
0.0
210
0.0
220
0.0
230
1.0
100
AcDbText
  0
TEXT
  5
1E7
100
AcDbEntity
  8
1
  6
CONTINUOUS
 62
     7
100
AcDbText
 10
176.421167
 20
18.303667
 30
0.0
 40
2.5
  1
1
  7
MONOTXT
 72
     4
 11
176.716417
 21
19.553667
 31
0.0
210
0.0
220
0.0
230
1.0
100
AcDbText
  0
TEXT
  5
1E8
100
AcDbEntity
  8
1
  6
CONTINUOUS
 62
     7
100
AcDbText
 10
213.04175
 20
8.096333
 30
0.0
 40
2.5
  1
A
  7
MONOTXT
 72
     4
 11
214.00625
 21
9.346333
 31
0.0
210
0.0
220
0.0
230
1.0
100
AcDbText
  0
TEXT
  5
1E9
100
AcDbEntity
  8
1
  6
CONTINUOUS
 62
     7
100
AcDbText
 10
212.94075
 20
-12.92475
 30
0.0
 40
2.5
  1
A
  7
MONOTXT
 72
     4
 11
213.90525
 21
-11.67475
 31
0.0
210
0.0
220
0.0
230
1.0
100
AcDbText
  0
TEXT
  5
1EA
100
AcDbEntity
  8
1
  6
CONTINUOUS
 62
     7
100
AcDbText
 10
171.646417
 20
-0.291917
 30
0.0
 40
2.5
  1
3
  7
MONOTXT
 72
     4
 11
172.483
 21
0.958083
 31
0.0
210
0.0
220
0.0
230
1.0
100
AcDbText
  0
TEXT
  5
1EB
100
AcDbEntity
  8
1
  6
CONTINUOUS
 62
     7
100
AcDbText
 10
194.117
 20
-0.494
 30
0.0
 40
2.5
  1
4
  7
MONOTXT
 72
     4
 11
195.012667
 21
0.756
 31
0.0
210
0.0
220
0.0
230
1.0
100
AcDbText
  0
TEXT
  5
1EC
100
AcDbEntity
  8
1
  6
CONTINUOUS
 62
     7
100
AcDbText
 10
175.687667
 20
-23.536333
 30
0.0
 40
2.5
  1
2
  7
MONOTXT
 72
     4
 11
176.52425
 21
-22.286333
 31
0.0
210
0.0
220
0.0
230
1.0
100
AcDbText
  0
TEXT
  5
1ED
100
AcDbEntity
  8
1
  6
CONTINUOUS
 62
     7
100
AcDbText
 10
175.931667
 20
-36.97775
 30
0.0
 40
2.5
  1
C
  7
MONOTXT
 72
     4
 11
176.827333
 21
-35.72775
 31
0.0
210
0.0
220
0.0
230
1.0
100
AcDbText
  0
TEXT
  5
1EE
100
AcDbEntity
  8
1
  6
CONTINUOUS
 62
     7
100
AcDbText
 10
189.974833
 20
-36.97775
 30
0.0
 40
2.5
  1
C
  7
MONOTXT
 72
     4
 11
190.8705
 21
-35.72775
 31
0.0
210
0.0
220
0.0
230
1.0
100
AcDbText
  0
TEXT
  5
1EF
100
AcDbEntity
  8
1
  6
CONTINUOUS
 62
     7
100
AcDbText
 10
220.342917
 20
-15.956667
 30
0.0
 40
2.5
  1
D
  7
MONOTXT
 72
     4
 11
221.1795
 21
-14.706667
 31
0.0
210
0.0
220
0.0
230
1.0
100
AcDbText
  0
TEXT
  5
1F0
100
AcDbEntity
  8
1
  6
CONTINUOUS
 62
     7
100
AcDbText
 10
176.360583
 20
-51.68325
 30
0.0
 40
2.5
  1
1
  7
MONOTXT
 72
     4
 11
176.655833
 21
-50.43325
 31
0.0
210
0.0
220
0.0
230
1.0
100
AcDbText
  0
TEXT
  5
1F1
100
AcDbEntity
  8
1
  6
CONTINUOUS
 62
     7
100
AcDbText
 10
171.5545
 20
-70.3515
 30
0.0
 40
2.5
  1
3
  7
MONOTXT
 72
     4
 11
172.391083
 21
-69.1015
 31
0.0
210
0.0
220
0.0
230
1.0
100
AcDbText
  0
TEXT
  5
1F2
100
AcDbEntity
  8
1
  6
CONTINUOUS
 62
     7
100
AcDbText
 10
194.327917
 20
-70.455833
 30
0.0
 40
2.5
  1
4
  7
MONOTXT
 72
     4
 11
195.223583
 21
-69.205833
 31
0.0
210
0.0
220
0.0
230
1.0
100
AcDbText
  0
TEXT
  5
1F3
100
AcDbEntity
  8
1
  6
CONTINUOUS
 62
     7
100
AcDbText
 10
175.829083
 20
-93.400083
 30
0.0
 40
2.5
  1
2
  7
MONOTXT
 72
     4
 11
176.665667
 21
-92.150083
 31
0.0
210
0.0
220
0.0
230
1.0
100
AcDbText
  0
TEXT
  5
1F4
100
AcDbEntity
  8
1
  6
CONTINUOUS
 62
     7
100
AcDbText
 10
220.916
 20
-72.958833
 30
0.0
 40
2.5
  1
3, 4
  7
MONOTXT
 72
     4
 11
224.311667
 21
-71.708833
 31
0.0
210
0.0
220
0.0
230
1.0
100
AcDbText
  0
TEXT
  5
1F5
100
AcDbEntity
  8
1
  6
CONTINUOUS
 62
     7
100
AcDbText
 10
241.521917
 20
-50.640333
 30
0.0
 40
2.5
  1
1
  7
MONOTXT
 72
     4
 11
241.817167
 21
-49.390333
 31
0.0
210
0.0
220
0.0
230
1.0
100
AcDbText
  0
TEXT
  5
1F6
100
AcDbEntity
  8
1
  6
CONTINUOUS
 62
     7
100
AcDbText
 10
241.30325
 20
-94.338667
 30
0.0
 40
2.5
  1
2
  7
MONOTXT
 72
     4
 11
242.139833
 21
-93.088667
 31
0.0
210
0.0
220
0.0
230
1.0
100
AcDbText
  0
TEXT
  5
1F7
100
AcDbEntity
  8
1
  6
CONTINUOUS
 62
     7
100
AcDbText
 10
213.64125
 20
-61.009667
 30
0.0
 40
2.5
  1
SIGN
  7
MONOTXT
 72
     4
 11
217.430583
 21
-59.759667
 31
0.0
210
0.0
220
0.0
230
1.0
100
AcDbText
  0
TEXT
  5
1F8
100
AcDbEntity
  8
1
  6
CONTINUOUS
 62
     7
100
AcDbText
 10
212.991583
 20
-65.509667
 30
0.0
 40
2.5
  1
FACE
  7
MONOTXT
 72
     4
 11
217.4305
 21
-64.259667
 31
0.0
210
0.0
220
0.0
230
1.0
100
AcDbText
  0
TEXT
  5
1F9
100
AcDbEntity
  8
1
  6
CONTINUOUS
 62
     7
100
AcDbText
 10
239.727
 20
-38.438167
 30
0.0
 40
2.5
  1
GEN. NOTE 2.5.2
  7
MONOTXT
 72
     4
 11
255.484833
 21
-37.188167
 31
0.0
210
0.0
220
0.0
230
1.0
100
AcDbText
  0
TEXT
  5
1FA
100
AcDbEntity
  8
1
  6
CONTINUOUS
 62
     7
100
AcDbText
 10
169.668583
 20
-124.725667
 30
0.0
 40
2.5
  1
3
  7
MONOTXT
 72
     4
 11
170.505167
 21
-123.475667
 31
0.0
210
0.0
220
0.0
230
1.0
100
AcDbText
  0
TEXT
  5
1FB
100
AcDbEntity
  8
1
  6
CONTINUOUS
 62
     7
100
AcDbText
 10
196.7065
 20
-124.848583
 30
0.0
 40
2.5
  1
4
  7
MONOTXT
 72
     4
 11
197.602167
 21
-123.598583
 31
0.0
210
0.0
220
0.0
230
1.0
100
AcDbText
  0
TEXT
  5
1FC
100
AcDbEntity
  8
1
  6
CONTINUOUS
 62
     7
100
AcDbText
 10
181.217833
 20
-119.931417
 30
0.0
 40
2.5
  1
1, 2
  7
MONOTXT
 72
     4
 11
184.022917
 21
-118.681417
 31
0.0
210
0.0
220
0.0
230
1.0
100
AcDbText
  0
TEXT
  5
1FD
100
AcDbEntity
  8
1
  6
CONTINUOUS
 62
     7
100
AcDbText
 10
186.931417
 20
-139.23125
 30
0.0
 40
2.5
  1
SIGN FACE
  7
MONOTXT
 72
     4
 11
196.803417
 21
-137.98125
 31
0.0
210
0.0
220
0.0
230
1.0
100
AcDbText
  0
TEXT
  5
1FE
100
AcDbEntity
  8
1
  6
CONTINUOUS
 62
     7
100
AcDbText
 10
-1.712
 20
-159.0475
 30
0.0
 40
4.5
  1
LESS THAN 9" WIDTH
  7
TXT
 72
     4
 11
31.352083
 21
-156.7975
 31
0.0
210
0.0
220
0.0
230
1.0
100
AcDbText
  0
TEXT
  5
1FF
100
AcDbEntity
  8
1
  6
CONTINUOUS
 62
     7
100
AcDbText
 10
-1.712
 20
-159.0475
 30
0.0
 40
4.5
  1
LESS THAN 9" WIDTH
  7
TXT
 72
     4
 11
31.352083
 21
-156.7975
 31
0.0
210
0.0
220
0.0
230
1.0
100
AcDbText
  0
TEXT
  5
200
100
AcDbEntity
  8
1
  6
CONTINUOUS
 62
     7
100
AcDbText
 10
145.862083
 20
-159.359
 30
0.0
 40
4.5
  1
9" OR OVER, BUT UNDER 36" WIDTH
  7
TXT
 72
     4
 11
200.52275
 21
-157.109
 31
0.0
210
0.0
220
0.0
230
1.0
100
AcDbText
  0
LINE
  5
201
100
AcDbEntity
  8
1
  6
CONTINUOUS
 62
     7
100
AcDbLine
 10
-2.90075
 20
-161.158333
 30
0.0
 11
66.717667
 21
-161.158333
 31
0.0
  0
LINE
  5
202
100
AcDbEntity
  8
1
  6
CONTINUOUS
 62
     7
100
AcDbLine
 10
144.16125
 20
-161.158333
 30
0.0
 11
256.397583
 21
-161.158333
 31
0.0
  0
LINE
  5
203
100
AcDbEntity
  8
1
  6
CONTINUOUS
 62
     3
100
AcDbLine
 10
89.446167
 20
-214.722583
 30
0.0
 11
89.446167
 21
-261.102583
 31
0.0
  0
LINE
  5
204
100
AcDbEntity
  8
1
  6
CONTINUOUS
 62
     3
100
AcDbLine
 10
89.446167
 20
-273.182583
 30
0.0
 11
89.446167
 21
-319.562583
 31
0.0
  0
LINE
  5
205
100
AcDbEntity
  8
1
  6
CONTINUOUS
 62
     3
100
AcDbLine
 10
91.446167
 20
-214.722583
 30
0.0
 11
91.446167
 21
-261.102583
 31
0.0
  0
LINE
  5
206
100
AcDbEntity
  8
1
  6
CONTINUOUS
 62
     3
100
AcDbLine
 10
91.446167
 20
-273.182583
 30
0.0
 11
91.446167
 21
-319.562583
 31
0.0
  0
LINE
  5
207
100
AcDbEntity
  8
1
  6
CONTINUOUS
 62
     3
100
AcDbLine
 10
90.446167
 20
-213.222583
 30
0.0
 11
90.446167
 21
-216.242583
 31
0.0
  0
LINE
  5
208
100
AcDbEntity
  8
1
  6
CONTINUOUS
 62
     3
100
AcDbLine
 10
89.446167
 20
-214.722583
 30
0.0
 11
90.446167
 21
-213.222583
 31
0.0
  0
LINE
  5
209
100
AcDbEntity
  8
1
  6
CONTINUOUS
 62
     3
100
AcDbLine
 10
90.446167
 20
-216.242583
 30
0.0
 11
91.446167
 21
-214.722583
 31
0.0
  0
LINE
  5
20A
100
AcDbEntity
  8
1
  6
CONTINUOUS
 62
     3
100
AcDbLine
 10
87.426167
 20
-214.722583
 30
0.0
 11
89.446167
 21
-214.722583
 31
0.0
  0
LINE
  5
20B
100
AcDbEntity
  8
1
  6
CONTINUOUS
 62
     3
100
AcDbLine
 10
91.446167
 20
-214.722583
 30
0.0
 11
93.466167
 21
-214.722583
 31
0.0
  0
LINE
  5
20C
100
AcDbEntity
  8
1
  6
CONTINUOUS
 62
     3
100
AcDbLine
 10
87.426167
 20
-261.102583
 30
0.0
 11
89.446167
 21
-261.102583
 31
0.0
  0
LINE
  5
20D
100
AcDbEntity
  8
1
  6
CONTINUOUS
 62
     3
100
AcDbLine
 10
90.446167
 20
-259.582583
 30
0.0
 11
90.446167
 21
-262.602583
 31
0.0
  0
LINE
  5
20E
100
AcDbEntity
  8
1
  6
CONTINUOUS
 62
     3
100
AcDbLine
 10
89.446167
 20
-261.102583
 30
0.0
 11
90.446167
 21
-259.582583
 31
0.0
  0
LINE
  5
20F
100
AcDbEntity
  8
1
  6
CONTINUOUS
 62
     3
100
AcDbLine
 10
90.446167
 20
-262.602583
 30
0.0
 11
91.446167
 21
-261.102583
 31
0.0
  0
LINE
  5
210
100
AcDbEntity
  8
1
  6
CONTINUOUS
 62
     3
100
AcDbLine
 10
91.446167
 20
-261.102583
 30
0.0
 11
93.466167
 21
-261.102583
 31
0.0
  0
LINE
  5
211
100
AcDbEntity
  8
1
  6
CONTINUOUS
 62
     3
100
AcDbLine
 10
87.426167
 20
-273.182583
 30
0.0
 11
89.446167
 21
-273.182583
 31
0.0
  0
LINE
  5
212
100
AcDbEntity
  8
1
  6
CONTINUOUS
 62
     3
100
AcDbLine
 10
90.446167
 20
-271.682583
 30
0.0
 11
90.446167
 21
-274.702583
 31
0.0
  0
LINE
  5
213
100
AcDbEntity
  8
1
  6
CONTINUOUS
 62
     3
100
AcDbLine
 10
89.446167
 20
-273.182583
 30
0.0
 11
90.446167
 21
-271.682583
 31
0.0
  0
LINE
  5
214
100
AcDbEntity
  8
1
  6
CONTINUOUS
 62
     3
100
AcDbLine
 10
90.446167
 20
-274.702583
 30
0.0
 11
91.446167
 21
-273.182583
 31
0.0
  0
LINE
  5
215
100
AcDbEntity
  8
1
  6
CONTINUOUS
 62
     3
100
AcDbLine
 10
91.446167
 20
-273.182583
 30
0.0
 11
93.466167
 21
-273.182583
 31
0.0
  0
LINE
  5
216
100
AcDbEntity
  8
1
  6
CONTINUOUS
 62
     3
100
AcDbLine
 10
87.426167
 20
-319.562583
 30
0.0
 11
89.446167
 21
-319.562583
 31
0.0
  0
LINE
  5
217
100
AcDbEntity
  8
1
  6
CONTINUOUS
 62
     3
100
AcDbLine
 10
90.446167
 20
-318.042583
 30
0.0
 11
90.446167
 21
-321.062583
 31
0.0
  0
LINE
  5
218
100
AcDbEntity
  8
1
  6
CONTINUOUS
 62
     3
100
AcDbLine
 10
89.446167
 20
-319.562583
 30
0.0
 11
90.446167
 21
-318.042583
 31
0.0
  0
LINE
  5
219
100
AcDbEntity
  8
1
  6
CONTINUOUS
 62
     3
100
AcDbLine
 10
90.446167
 20
-321.062583
 30
0.0
 11
91.446167
 21
-319.562583
 31
0.0
  0
LINE
  5
21A
100
AcDbEntity
  8
1
  6
CONTINUOUS
 62
     3
100
AcDbLine
 10
91.446167
 20
-319.562583
 30
0.0
 11
93.466167
 21
-319.562583
 31
0.0
  0
LINE
  5
21B
100
AcDbEntity
  8
1
  6
CONTINUOUS
 62
     3
100
AcDbLine
 10
112.126167
 20
-216.242583
 30
0.0
 11
112.126167
 21
-265.122583
 31
0.0
  0
LINE
  5
21C
100
AcDbEntity
  8
1
  6
CONTINUOUS
 62
     3
100
AcDbLine
 10
113.126167
 20
-216.242583
 30
0.0
 11
113.126167
 21
-265.122583
 31
0.0
  0
LINE
  5
21D
100
AcDbEntity
  8
1
  6
CONTINUOUS
 62
     3
100
AcDbLine
 10
124.206167
 20
-216.242583
 30
0.0
 11
124.206167
 21
-265.122583
 31
0.0
  0
LINE
  5
21E
100
AcDbEntity
  8
1
  6
DASHED
 62
     3
100
AcDbLine
 10
123.206167
 20
-216.242583
 30
0.0
 11
123.206167
 21
-265.122583
 31
0.0
  0
LINE
  5
21F
100
AcDbEntity
  8
1
  6
CONTINUOUS
 62
     3
100
AcDbLine
 10
118.166167
 20
-214.722583
 30
0.0
 11
118.166167
 21
-217.742583
 31
0.0
  0
LINE
  5
220
100
AcDbEntity
  8
1
  6
CONTINUOUS
 62
     3
100
AcDbLine
 10
117.166167
 20
-216.242583
 30
0.0
 11
118.166167
 21
-214.722583
 31
0.0
  0
LINE
  5
221
100
AcDbEntity
  8
1
  6
CONTINUOUS
 62
     3
100
AcDbLine
 10
118.166167
 20
-217.742583
 30
0.0
 11
119.166167
 21
-216.242583
 31
0.0
  0
LINE
  5
222
100
AcDbEntity
  8
1
  6
CONTINUOUS
 62
     3
100
AcDbLine
 10
118.166167
 20
-263.622583
 30
0.0
 11
118.166167
 21
-266.642583
 31
0.0
  0
LINE
  5
223
100
AcDbEntity
  8
1
  6
CONTINUOUS
 62
     3
100
AcDbLine
 10
117.166167
 20
-265.122583
 30
0.0
 11
118.166167
 21
-263.622583
 31
0.0
  0
LINE
  5
224
100
AcDbEntity
  8
1
  6
CONTINUOUS
 62
     3
100
AcDbLine
 10
118.166167
 20
-266.642583
 30
0.0
 11
119.166167
 21
-265.122583
 31
0.0
  0
LINE
  5
225
100
AcDbEntity
  8
1
  6
CONTINUOUS
 62
     3
100
AcDbLine
 10
110.106167
 20
-216.242583
 30
0.0
 11
117.166167
 21
-216.242583
 31
0.0
  0
LINE
  5
226
100
AcDbEntity
  8
1
  6
CONTINUOUS
 62
     3
100
AcDbLine
 10
119.166167
 20
-216.242583
 30
0.0
 11
126.226167
 21
-216.242583
 31
0.0
  0
LINE
  5
227
100
AcDbEntity
  8
1
  6
CONTINUOUS
 62
     3
100
AcDbLine
 10
110.106167
 20
-265.122583
 30
0.0
 11
117.166167
 21
-265.122583
 31
0.0
  0
LINE
  5
228
100
AcDbEntity
  8
1
  6
CONTINUOUS
 62
     3
100
AcDbLine
 10
119.166167
 20
-265.122583
 30
0.0
 11
126.226167
 21
-265.122583
 31
0.0
  0
LINE
  5
229
100
AcDbEntity
  8
1
  6
CONTINUOUS
 62
     3
100
AcDbLine
 10
92.446167
 20
-234.382583
 30
0.0
 11
94.466167
 21
-234.382583
 31
0.0
  0
LINE
  5
22A
100
AcDbEntity
  8
1
  6
CONTINUOUS
 62
     3
100
AcDbLine
 10
94.466167
 20
-234.382583
 30
0.0
 11
94.466167
 21
-242.442583
 31
0.0
  0
LINE
  5
22B
100
AcDbEntity
  8
1
  6
CONTINUOUS
 62
     3
100
AcDbLine
 10
94.466167
 20
-242.442583
 30
0.0
 11
112.126167
 21
-242.442583
 31
0.0
  0
LINE
  5
22C
100
AcDbEntity
  8
1
  6
CONTINUOUS
 62
     3
100
AcDbLine
 10
92.446167
 20
-244.462583
 30
0.0
 11
106.066167
 21
-244.462583
 31
0.0
  0
LINE
  5
22D
100
AcDbEntity
  8
1
  6
CONTINUOUS
 62
     3
100
AcDbLine
 10
106.066167
 20
-244.462583
 30
0.0
 11
106.066167
 21
-250.502583
 31
0.0
  0
LINE
  5
22E
100
AcDbEntity
  8
1
  6
CONTINUOUS
 62
     3
100
AcDbLine
 10
106.066167
 20
-250.502583
 30
0.0
 11
112.126167
 21
-250.502583
 31
0.0
  0
LINE
  5
22F
100
AcDbEntity
  8
1
  6
CONTINUOUS
 62
     3
100
AcDbLine
 10
108.086167
 20
-244.462583
 30
0.0
 11
108.086167
 21
-249.502583
 31
0.0
  0
LINE
  5
230
100
AcDbEntity
  8
1
  6
CONTINUOUS
 62
     3
100
AcDbLine
 10
108.086167
 20
-244.462583
 30
0.0
 11
111.366167
 21
-244.462583
 31
0.0
  0
LINE
  5
231
100
AcDbEntity
  8
1
  6
CONTINUOUS
 62
     3
100
AcDbLine
 10
108.086167
 20
-249.502583
 30
0.0
 11
111.366167
 21
-249.502583
 31
0.0
  0
LINE
  5
232
100
AcDbEntity
  8
1
  6
CONTINUOUS
 62
     3
100
AcDbLine
 10
111.366167
 20
-244.462583
 30
0.0
 11
111.366167
 21
-249.502583
 31
0.0
  0
LINE
  5
233
100
AcDbEntity
  8
1
  6
CONTINUOUS
 62
     3
100
AcDbLine
 10
108.586167
 20
-244.962583
 30
0.0
 11
108.586167
 21
-249.002583
 31
0.0
  0
LINE
  5
234
100
AcDbEntity
  8
1
  6
CONTINUOUS
 62
     3
100
AcDbLine
 10
108.586167
 20
-244.962583
 30
0.0
 11
110.866167
 21
-244.962583
 31
0.0
  0
LINE
  5
235
100
AcDbEntity
  8
1
  6
CONTINUOUS
 62
     3
100
AcDbLine
 10
110.866167
 20
-244.962583
 30
0.0
 11
110.866167
 21
-249.002583
 31
0.0
  0
LINE
  5
236
100
AcDbEntity
  8
1
  6
CONTINUOUS
 62
     3
100
AcDbLine
 10
108.586167
 20
-249.002583
 30
0.0
 11
110.866167
 21
-249.002583
 31
0.0
  0
LINE
  5
237
100
AcDbEntity
  8
1
  6
CONTINUOUS
 62
     3
100
AcDbLine
 10
108.586167
 20
-245.982583
 30
0.0
 11
110.866167
 21
-245.982583
 31
0.0
  0
LINE
  5
238
100
AcDbEntity
  8
1
  6
CONTINUOUS
 62
     3
100
AcDbLine
 10
108.586167
 20
-247.982583
 30
0.0
 11
110.866167
 21
-247.982583
 31
0.0
  0
LINE
  5
239
100
AcDbEntity
  8
1
  6
DASHED
 62
     3
100
AcDbLine
 10
113.126167
 20
-245.982583
 30
0.0
 11
123.206167
 21
-245.982583
 31
0.0
  0
LINE
  5
23A
100
AcDbEntity
  8
1
  6
DASHED
 62
     3
100
AcDbLine
 10
113.126167
 20
-247.982583
 30
0.0
 11
123.206167
 21
-247.982583
 31
0.0
  0
LINE
  5
23B
100
AcDbEntity
  8
1
  6
CONTINUOUS
 62
     3
100
AcDbLine
 10
124.206167
 20
-245.982583
 30
0.0
 11
127.746167
 21
-245.982583
 31
0.0
  0
LINE
  5
23C
100
AcDbEntity
  8
1
  6
CONTINUOUS
 62
     3
100
AcDbLine
 10
124.206167
 20
-247.982583
 30
0.0
 11
127.746167
 21
-247.982583
 31
0.0
  0
LINE
  5
23D
100
AcDbEntity
  8
1
  6
CONTINUOUS
 62
     3
100
AcDbLine
 10
124.206167
 20
-244.962583
 30
0.0
 11
125.726167
 21
-244.962583
 31
0.0
  0
LINE
  5
23E
100
AcDbEntity
  8
1
  6
CONTINUOUS
 62
     3
100
AcDbLine
 10
124.206167
 20
-249.002583
 30
0.0
 11
125.726167
 21
-249.002583
 31
0.0
  0
LINE
  5
23F
100
AcDbEntity
  8
1
  6
CONTINUOUS
 62
     3
100
AcDbLine
 10
125.726167
 20
-244.962583
 30
0.0
 11
125.726167
 21
-249.002583
 31
0.0
  0
LINE
  5
240
100
AcDbEntity
  8
1
  6
CONTINUOUS
 62
     3
100
AcDbLine
 10
127.746167
 20
-245.982583
 30
0.0
 11
127.746167
 21
-247.982583
 31
0.0
  0
LINE
  5
241
100
AcDbEntity
  8
1
  6
CONTINUOUS
 62
     3
100
AcDbLine
 10
126.726167
 20
-245.982583
 30
0.0
 11
126.726167
 21
-247.982583
 31
0.0
  0
LINE
  5
242
100
AcDbEntity
  8
1
  6
CONTINUOUS
 62
     3
100
AcDbLine
 10
127.246167
 20
-246.482583
 30
0.0
 11
127.246167
 21
-247.482583
 31
0.0
  0
LINE
  5
243
100
AcDbEntity
  8
1
  6
CONTINUOUS
 62
     3
100
AcDbLine
 10
126.226167
 20
-246.482583
 30
0.0
 11
126.226167
 21
-247.482583
 31
0.0
  0
LINE
  5
244
100
AcDbEntity
  8
1
  6
CONTINUOUS
 62
     7
100
AcDbLine
 10
128.746167
 20
-246.982583
 30
0.0
 11
132.786167
 21
-246.982583
 31
0.0
  0
LINE
  5
245
100
AcDbEntity
  8
1
  6
CONTINUOUS
 62
     3
100
AcDbLine
 10
94.466167
 20
-238.422583
 30
0.0
 11
95.486167
 21
-238.422583
 31
0.0
  0
LINE
  5
246
100
AcDbEntity
  8
1
  6
CONTINUOUS
 62
     3
100
AcDbLine
 10
94.466167
 20
-237.402583
 30
0.0
 11
95.486167
 21
-237.402583
 31
0.0
  0
LINE
  5
247
100
AcDbEntity
  8
1
  6
CONTINUOUS
 62
     3
100
AcDbLine
 10
94.466167
 20
-239.422583
 30
0.0
 11
95.486167
 21
-239.422583
 31
0.0
  0
LINE
  5
248
100
AcDbEntity
  8
1
  6
CONTINUOUS
 62
     3
100
AcDbLine
 10
95.486167
 20
-237.402583
 30
0.0
 11
95.486167
 21
-238.422583
 31
0.0
  0
LINE
  5
249
100
AcDbEntity
  8
1
  6
CONTINUOUS
 62
     3
100
AcDbLine
 10
95.486167
 20
-238.422583
 30
0.0
 11
95.486167
 21
-239.422583
 31
0.0
  0
LINE
  5
24A
100
AcDbEntity
  8
1
  6
CONTINUOUS
 62
     3
100
AcDbLine
 10
95.486167
 20
-237.902583
 30
0.0
 11
97.486167
 21
-237.902583
 31
0.0
  0
LINE
  5
24B
100
AcDbEntity
  8
1
  6
CONTINUOUS
 62
     3
100
AcDbLine
 10
95.486167
 20
-238.922583
 30
0.0
 11
97.486167
 21
-238.922583
 31
0.0
  0
LINE
  5
24C
100
AcDbEntity
  8
1
  6
CONTINUOUS
 62
     3
100
AcDbLine
 10
97.486167
 20
-238.922583
 30
0.0
 11
97.486167
 21
-237.902583
 31
0.0
  0
LINE
  5
24D
100
AcDbEntity
  8
1
  6
CONTINUOUS
 62
     3
100
AcDbLine
 10
96.746167
 20
-238.922583
 30
0.0
 11
96.746167
 21
-237.902583
 31
0.0
  0
LINE
  5
24E
100
AcDbEntity
  8
1
  6
CONTINUOUS
 62
     3
100
AcDbLine
 10
95.986167
 20
-238.922583
 30
0.0
 11
95.986167
 21
-237.902583
 31
0.0
  0
LINE
  5
24F
100
AcDbEntity
  8
1
  6
CONTINUOUS
 62
     7
100
AcDbLine
 10
101.026167
 20
-238.422583
 30
0.0
 11
98.506167
 21
-238.422583
 31
0.0
  0
LINE
  5
250
100
AcDbEntity
  8
1
  6
CONTINUOUS
 62
     7
100
AcDbLine
 10
87.426167
 20
-238.422583
 30
0.0
 11
84.906167
 21
-238.422583
 31
0.0
  0
LINE
  5
251
100
AcDbEntity
  8
1
  6
CONTINUOUS
 62
     7
100
AcDbLine
 10
102.786167
 20
-242.442583
 30
0.0
 11
98.986167
 21
-207.542583
 31
0.0
  0
LINE
  5
252
100
AcDbEntity
  8
1
  6
CONTINUOUS
 62
     7
100
AcDbLine
 10
98.986167
 20
-207.542583
 30
0.0
 11
80.746167
 21
-207.542583
 31
0.0
  0
INSERT
  5
253
100
AcDbEntity
  8
1
  6
CONTINUOUS
 62
     1
100
AcDbBlockReference
  2
LDR
 10
102.786167
 20
-242.442583
 30
0.0
 41
241.920491
 42
241.920491
 50
276.212984
210
0.0
220
0.0
230
1.0
  0
LINE
  5
254
100
AcDbEntity
  8
1
  6
CONTINUOUS
 62
     7
100
AcDbLine
 10
124.206167
 20
-229.742583
 30
0.0
 11
131.726167
 21
-221.542583
 31
0.0
  0
LINE
  5
255
100
AcDbEntity
  8
1
  6
CONTINUOUS
 62
     7
100
AcDbLine
 10
131.726167
 20
-221.542583
 30
0.0
 11
136.466167
 21
-221.542583
 31
0.0
  0
INSERT
  5
256
100
AcDbEntity
  8
1
  6
CONTINUOUS
 62
     1
100
AcDbBlockReference
  2
LDR
 10
124.206167
 20
-229.742583
 30
0.0
 41
241.920009
 42
241.920009
 50
227.499032
210
0.0
220
0.0
230
1.0
  0
LINE
  5
257
100
AcDbEntity
  8
1
  6
CONTINUOUS
 62
     3
100
AcDbLine
 10
112.626167
 20
-278.222583
 30
0.0
 11
112.626167
 21
-314.522583
 31
0.0
  0
LINE
  5
258
100
AcDbEntity
  8
1
  6
CONTINUOUS
 62
     3
100
AcDbLine
 10
102.046167
 20
-276.222583
 30
0.0
 11
102.046167
 21
-280.242583
 31
0.0
  0
LINE
  5
259
100
AcDbEntity
  8
1
  6
CONTINUOUS
 62
     3
100
AcDbLine
 10
102.046167
 20
-312.502583
 30
0.0
 11
102.046167
 21
-316.542583
 31
0.0
  0
LINE
  5
25A
100
AcDbEntity
  8
1
  6
CONTINUOUS
 62
     3
100
AcDbLine
 10
112.626167
 20
-278.222583
 30
0.0
 11
104.046167
 21
-278.222583
 31
0.0
  0
LINE
  5
25B
100
AcDbEntity
  8
1
  6
CONTINUOUS
 62
     3
100
AcDbLine
 10
100.026167
 20
-278.222583
 30
0.0
 11
91.446167
 21
-278.222583
 31
0.0
  0
LINE
  5
25C
100
AcDbEntity
  8
1
  6
CONTINUOUS
 62
     3
100
AcDbLine
 10
112.626167
 20
-314.522583
 30
0.0
 11
104.046167
 21
-314.522583
 31
0.0
  0
LINE
  5
25D
100
AcDbEntity
  8
1
  6
CONTINUOUS
 62
     3
100
AcDbLine
 10
100.026167
 20
-314.522583
 30
0.0
 11
91.446167
 21
-314.522583
 31
0.0
  0
LINE
  5
25E
100
AcDbEntity
  8
1
  6
CONTINUOUS
 62
     3
100
AcDbLine
 10
100.026167
 20
-278.222583
 30
0.0
 11
102.046167
 21
-276.222583
 31
0.0
  0
LINE
  5
25F
100
AcDbEntity
  8
1
  6
CONTINUOUS
 62
     3
100
AcDbLine
 10
104.046167
 20
-278.222583
 30
0.0
 11
102.046167
 21
-280.242583
 31
0.0
  0
LINE
  5
260
100
AcDbEntity
  8
1
  6
CONTINUOUS
 62
     3
100
AcDbLine
 10
100.026167
 20
-314.522583
 30
0.0
 11
102.046167
 21
-312.502583
 31
0.0
  0
LINE
  5
261
100
AcDbEntity
  8
1
  6
CONTINUOUS
 62
     3
100
AcDbLine
 10
104.046167
 20
-314.522583
 30
0.0
 11
102.046167
 21
-316.542583
 31
0.0
  0
LINE
  5
262
100
AcDbEntity
  8
1
  6
CONTINUOUS
 62
     3
100
AcDbLine
 10
93.466167
 20
-278.222583
 30
0.0
 11
93.466167
 21
-314.522583
 31
0.0
  0
LINE
  5
263
100
AcDbEntity
  8
1
  6
DASHED
 62
     3
100
AcDbLine
 10
108.846167
 20
-278.222583
 30
0.0
 11
108.846167
 21
-314.522583
 31
0.0
  0
LINE
  5
264
100
AcDbEntity
  8
1
  6
DASHED
 62
     3
100
AcDbLine
 10
106.826167
 20
-278.222583
 30
0.0
 11
106.826167
 21
-314.522583
 31
0.0
  0
LINE
  5
265
100
AcDbEntity
  8
1
  6
HIDDEN
 62
     3
100
AcDbLine
 10
109.606167
 20
-293.862583
 30
0.0
 11
109.606167
 21
-298.902583
 31
0.0
  0
LINE
  5
266
100
AcDbEntity
  8
1
  6
HIDDEN
 62
     3
100
AcDbLine
 10
109.606167
 20
-293.862583
 30
0.0
 11
111.366167
 21
-293.862583
 31
0.0
  0
LINE
  5
267
100
AcDbEntity
  8
1
  6
HIDDEN
 62
     3
100
AcDbLine
 10
109.606167
 20
-298.902583
 30
0.0
 11
111.366167
 21
-298.902583
 31
0.0
  0
LINE
  5
268
100
AcDbEntity
  8
1
  6
HIDDEN
 62
     3
100
AcDbLine
 10
111.366167
 20
-295.122583
 30
0.0
 11
112.626167
 21
-295.122583
 31
0.0
  0
LINE
  5
269
100
AcDbEntity
  8
1
  6
HIDDEN
 62
     3
100
AcDbLine
 10
111.366167
 20
-297.642583
 30
0.0
 11
112.626167
 21
-297.642583
 31
0.0
  0
LINE
  5
26A
100
AcDbEntity
  8
1
  6
CONTINUOUS
 62
     3
100
AcDbLine
 10
112.626167
 20
-295.122583
 30
0.0
 11
122.706167
 21
-295.122583
 31
0.0
  0
LINE
  5
26B
100
AcDbEntity
  8
1
  6
CONTINUOUS
 62
     3
100
AcDbLine
 10
112.626167
 20
-297.642583
 30
0.0
 11
122.706167
 21
-297.642583
 31
0.0
  0
LINE
  5
26C
100
AcDbEntity
  8
1
  6
CONTINUOUS
 62
     3
100
AcDbLine
 10
122.706167
 20
-300.162583
 30
0.0
 11
122.706167
 21
-292.602583
 31
0.0
  0
LINE
  5
26D
100
AcDbEntity
  8
1
  6
CONTINUOUS
 62
     3
100
AcDbLine
 10
124.726167
 20
-301.222583
 30
0.0
 11
124.726167
 21
-291.522583
 31
0.0
  0
LINE
  5
26E
100
AcDbEntity
  8
1
  6
CONTINUOUS
 62
     3
100
AcDbLine
 10
112.626167
 20
-285.782583
 30
0.0
 11
122.706167
 21
-292.602583
 31
0.0
  0
LINE
  5
26F
100
AcDbEntity
  8
1
  6
CONTINUOUS
 62
     3
100
AcDbLine
 10
122.706167
 20
-300.162583
 30
0.0
 11
112.626167
 21
-306.962583
 31
0.0
  0
LINE
  5
270
100
AcDbEntity
  8
1
  6
CONTINUOUS
 62
     3
100
AcDbLine
 10
112.626167
 20
-281.262583
 30
0.0
 11
114.646167
 21
-281.262583
 31
0.0
  0
LINE
  5
271
100
AcDbEntity
  8
1
  6
CONTINUOUS
 62
     3
100
AcDbLine
 10
112.626167
 20
-311.502583
 30
0.0
 11
114.646167
 21
-311.502583
 31
0.0
  0
LINE
  5
272
100
AcDbEntity
  8
1
  6
CONTINUOUS
 62
     3
100
AcDbLine
 10
114.646167
 20
-284.722583
 30
0.0
 11
124.726167
 21
-291.522583
 31
0.0
  0
LINE
  5
273
100
AcDbEntity
  8
1
  6
CONTINUOUS
 62
     3
100
AcDbLine
 10
124.726167
 20
-301.222583
 30
0.0
 11
114.646167
 21
-308.022583
 31
0.0
  0
LINE
  5
274
100
AcDbEntity
  8
1
  6
CONTINUOUS
 62
     3
100
AcDbLine
 10
114.646167
 20
-281.262583
 30
0.0
 11
114.646167
 21
-284.722583
 31
0.0
  0
LINE
  5
275
100
AcDbEntity
  8
1
  6
CONTINUOUS
 62
     3
100
AcDbLine
 10
114.646167
 20
-311.502583
 30
0.0
 11
114.646167
 21
-308.022583
 31
0.0
  0
LINE
  5
276
100
AcDbEntity
  8
1
  6
CONTINUOUS
 62
     3
100
AcDbLine
 10
124.726167
 20
-293.862583
 30
0.0
 11
126.226167
 21
-293.862583
 31
0.0
  0
LINE
  5
277
100
AcDbEntity
  8
1
  6
CONTINUOUS
 62
     3
100
AcDbLine
 10
124.726167
 20
-298.902583
 30
0.0
 11
126.226167
 21
-298.902583
 31
0.0
  0
LINE
  5
278
100
AcDbEntity
  8
1
  6
CONTINUOUS
 62
     3
100
AcDbLine
 10
126.226167
 20
-293.862583
 30
0.0
 11
126.226167
 21
-298.902583
 31
0.0
  0
LINE
  5
279
100
AcDbEntity
  8
1
  6
DASHED
 62
     3
100
AcDbLine
 10
111.366167
 20
-278.222583
 30
0.0
 11
111.366167
 21
-293.862583
 31
0.0
  0
LINE
  5
27A
100
AcDbEntity
  8
1
  6
DASHED
 62
     3
100
AcDbLine
 10
111.366167
 20
-295.122583
 30
0.0
 11
111.366167
 21
-297.642583
 31
0.0
  0
LINE
  5
27B
100
AcDbEntity
  8
1
  6
DASHED
 62
     3
100
AcDbLine
 10
111.366167
 20
-298.902583
 30
0.0
 11
111.366167
 21
-314.522583
 31
0.0
  0
LINE
  5
27C
100
AcDbEntity
  8
1
  6
CONTINUOUS
 62
     3
100
AcDbLine
 10
124.726167
 20
-295.122583
 30
0.0
 11
128.246167
 21
-295.122583
 31
0.0
  0
LINE
  5
27D
100
AcDbEntity
  8
1
  6
CONTINUOUS
 62
     3
100
AcDbLine
 10
124.726167
 20
-297.642583
 30
0.0
 11
128.246167
 21
-297.642583
 31
0.0
  0
LINE
  5
27E
100
AcDbEntity
  8
1
  6
CONTINUOUS
 62
     3
100
AcDbLine
 10
128.246167
 20
-295.122583
 30
0.0
 11
128.246167
 21
-297.642583
 31
0.0
  0
LINE
  5
27F
100
AcDbEntity
  8
1
  6
CONTINUOUS
 62
     3
100
AcDbLine
 10
127.746167
 20
-295.622583
 30
0.0
 11
127.746167
 21
-297.122583
 31
0.0
  0
LINE
  5
280
100
AcDbEntity
  8
1
  6
CONTINUOUS
 62
     3
100
AcDbLine
 10
127.246167
 20
-295.122583
 30
0.0
 11
127.246167
 21
-297.642583
 31
0.0
  0
LINE
  5
281
100
AcDbEntity
  8
1
  6
CONTINUOUS
 62
     3
100
AcDbLine
 10
126.726167
 20
-295.622583
 30
0.0
 11
126.726167
 21
-297.122583
 31
0.0
  0
LINE
  5
282
100
AcDbEntity
  8
1
  6
CONTINUOUS
 62
     3
100
AcDbLine
 10
122.206167
 20
-297.122583
 30
0.0
 11
122.206167
 21
-295.622583
 31
0.0
  0
LINE
  5
283
100
AcDbEntity
  8
1
  6
CONTINUOUS
 62
     3
100
AcDbLine
 10
121.686167
 20
-297.642583
 30
0.0
 11
121.686167
 21
-295.122583
 31
0.0
  0
LINE
  5
284
100
AcDbEntity
  8
1
  6
CONTINUOUS
 62
     3
100
AcDbLine
 10
121.186167
 20
-297.122583
 30
0.0
 11
121.186167
 21
-295.622583
 31
0.0
  0
LINE
  5
285
100
AcDbEntity
  8
1
  6
CONTINUOUS
 62
     3
100
AcDbLine
 10
120.686167
 20
-297.642583
 30
0.0
 11
120.686167
 21
-295.122583
 31
0.0
  0
LINE
  5
286
100
AcDbEntity
  8
1
  6
CONTINUOUS
 62
     3
100
AcDbLine
 10
120.186167
 20
-297.122583
 30
0.0
 11
120.186167
 21
-295.622583
 31
0.0
  0
LINE
  5
287
100
AcDbEntity
  8
1
  6
CONTINUOUS
 62
     3
100
AcDbLine
 10
119.686167
 20
-297.642583
 30
0.0
 11
119.686167
 21
-295.122583
 31
0.0
  0
LINE
  5
288
100
AcDbEntity
  8
1
  6
CONTINUOUS
 62
     3
100
AcDbLine
 10
119.166167
 20
-297.122583
 30
0.0
 11
119.166167
 21
-295.622583
 31
0.0
  0
LINE
  5
289
100
AcDbEntity
  8
1
  6
CONTINUOUS
 62
     3
100
AcDbLine
 10
118.666167
 20
-297.642583
 30
0.0
 11
118.666167
 21
-295.122583
 31
0.0
  0
LINE
  5
28A
100
AcDbEntity
  8
1
  6
CONTINUOUS
 62
     3
100
AcDbLine
 10
118.166167
 20
-297.122583
 30
0.0
 11
118.166167
 21
-295.622583
 31
0.0
  0
LINE
  5
28B
100
AcDbEntity
  8
1
  6
CONTINUOUS
 62
     3
100
AcDbLine
 10
117.666167
 20
-297.642583
 30
0.0
 11
117.666167
 21
-295.122583
 31
0.0
  0
LINE
  5
28C
100
AcDbEntity
  8
1
  6
CONTINUOUS
 62
     3
100
AcDbLine
 10
117.166167
 20
-297.122583
 30
0.0
 11
117.166167
 21
-295.622583
 31
0.0
  0
LINE
  5
28D
100
AcDbEntity
  8
1
  6
CONTINUOUS
 62
     3
100
AcDbLine
 10
116.646167
 20
-297.642583
 30
0.0
 11
116.646167
 21
-295.122583
 31
0.0
  0
LINE
  5
28E
100
AcDbEntity
  8
1
  6
CONTINUOUS
 62
     3
100
AcDbLine
 10
116.146167
 20
-297.122583
 30
0.0
 11
116.146167
 21
-295.622583
 31
0.0
  0
LINE
  5
28F
100
AcDbEntity
  8
1
  6
CONTINUOUS
 62
     3
100
AcDbLine
 10
115.646167
 20
-297.642583
 30
0.0
 11
115.646167
 21
-295.122583
 31
0.0
  0
LINE
  5
290
100
AcDbEntity
  8
1
  6
CONTINUOUS
 62
     3
100
AcDbLine
 10
115.146167
 20
-297.122583
 30
0.0
 11
115.146167
 21
-295.622583
 31
0.0
  0
LINE
  5
291
100
AcDbEntity
  8
1
  6
CONTINUOUS
 62
     3
100
AcDbLine
 10
114.646167
 20
-297.642583
 30
0.0
 11
114.646167
 21
-295.122583
 31
0.0
  0
LINE
  5
292
100
AcDbEntity
  8
1
  6
CONTINUOUS
 62
     3
100
AcDbLine
 10
114.126167
 20
-297.122583
 30
0.0
 11
114.126167
 21
-295.622583
 31
0.0
  0
LINE
  5
293
100
AcDbEntity
  8
1
  6
CONTINUOUS
 62
     3
100
AcDbLine
 10
113.626167
 20
-297.642583
 30
0.0
 11
113.626167
 21
-295.122583
 31
0.0
  0
LINE
  5
294
100
AcDbEntity
  8
1
  6
CONTINUOUS
 62
     3
100
AcDbLine
 10
113.126167
 20
-297.122583
 30
0.0
 11
113.126167
 21
-295.622583
 31
0.0
  0
LINE
  5
295
100
AcDbEntity
  8
1
  6
CONTINUOUS
 62
     7
100
AcDbLine
 10
129.246167
 20
-296.382583
 30
0.0
 11
133.286167
 21
-296.382583
 31
0.0
  0
LINE
  5
296
100
AcDbEntity
  8
1
  6
CONTINUOUS
 62
     7
100
AcDbLine
 10
132.786167
 20
-271.682583
 30
0.0
 11
137.746167
 21
-271.682583
 31
0.0
  0
LINE
  5
297
100
AcDbEntity
  8
1
  6
CONTINUOUS
 62
     7
100
AcDbLine
 10
125.686167
 20
-247.942583
 30
0.0
 11
132.786167
 21
-271.682583
 31
0.0
  0
LINE
  5
298
100
AcDbEntity
  8
1
  6
CONTINUOUS
 62
     7
100
AcDbLine
 10
126.166167
 20
-295.142583
 30
0.0
 11
132.786167
 21
-271.682583
 31
0.0
  0
INSERT
  5
299
100
AcDbEntity
  8
1
  6
CONTINUOUS
 62
     1
100
AcDbBlockReference
  2
LDR
 10
125.686167
 20
-247.942583
 30
0.0
 41
241.920413
 42
241.920413
 50
106.643114
210
0.0
220
0.0
230
1.0
  0
INSERT
  5
29A
100
AcDbEntity
  8
1
  6
CONTINUOUS
 62
     1
100
AcDbBlockReference
  2
LDR
 10
125.686167
 20
-247.942583
 30
0.0
 41
241.920413
 42
241.920413
 50
106.643114
210
0.0
220
0.0
230
1.0
  0
INSERT
  5
29B
100
AcDbEntity
  8
1
  6
CONTINUOUS
 62
     1
100
AcDbBlockReference
  2
LDR
 10
126.166167
 20
-295.142583
 30
0.0
 41
241.919895
 42
241.919895
 50
254.25319
210
0.0
220
0.0
230
1.0
  0
LINE
  5
29C
100
AcDbEntity
  8
1
  6
CONTINUOUS
 62
     7
100
AcDbLine
 10
67.646167
 20
-271.682583
 30
0.0
 11
72.606167
 21
-271.682583
 31
0.0
  0
LINE
  5
29D
100
AcDbEntity
  8
1
  6
CONTINUOUS
 62
     7
100
AcDbLine
 10
72.606167
 20
-271.682583
 30
0.0
 11
89.446167
 21
-247.902583
 31
0.0
  0
LINE
  5
29E
100
AcDbEntity
  8
1
  6
CONTINUOUS
 62
     7
100
AcDbLine
 10
72.606167
 20
-271.682583
 30
0.0
 11
89.446167
 21
-295.442583
 31
0.0
  0
INSERT
  5
29F
100
AcDbEntity
  8
1
  6
CONTINUOUS
 62
     1
100
AcDbBlockReference
  2
LDR
 10
89.446167
 20
-247.902583
 30
0.0
 41
241.91998
 42
241.91998
 50
54.697246
210
0.0
220
0.0
230
1.0
  0
INSERT
  5
2A0
100
AcDbEntity
  8
1
  6
CONTINUOUS
 62
     1
100
AcDbBlockReference
  2
LDR
 10
89.446167
 20
-247.902583
 30
0.0
 41
241.91998
 42
241.91998
 50
54.697246
210
0.0
220
0.0
230
1.0
  0
INSERT
  5
2A1
100
AcDbEntity
  8
1
  6
CONTINUOUS
 62
     1
100
AcDbBlockReference
  2
LDR
 10
89.446167
 20
-295.442583
 30
0.0
 41
241.91998
 42
241.91998
 50
305.302754
210
0.0
220
0.0
230
1.0
  0
LINE
  5
2A2
100
AcDbEntity
  8
1
  6
CONTINUOUS
 62
     7
100
AcDbLine
 10
119.686167
 20
-304.622583
 30
0.0
 11
124.966167
 21
-315.322583
 31
0.0
  0
LINE
  5
2A3
100
AcDbEntity
  8
1
  6
CONTINUOUS
 62
     7
100
AcDbLine
 10
124.966167
 20
-315.322583
 30
0.0
 11
129.226167
 21
-315.322583
 31
0.0
  0
INSERT
  5
2A4
100
AcDbEntity
  8
1
  6
CONTINUOUS
 62
     1
100
AcDbBlockReference
  2
LDR
 10
119.686167
 20
-304.622583
 30
0.0
 41
241.919599
 42
241.919599
 50
116.238698
210
0.0
220
0.0
230
1.0
  0
LINE
  5
2A5
100
AcDbEntity
  8
1
  6
CONTINUOUS
 62
     7
100
AcDbLine
 10
108.846167
 20
-314.522583
 30
0.0
 11
113.806167
 21
-327.982583
 31
0.0
  0
LINE
  5
2A6
100
AcDbEntity
  8
1
  6
CONTINUOUS
 62
     7
100
AcDbLine
 10
113.806167
 20
-327.982583
 30
0.0
 11
118.626167
 21
-327.982583
 31
0.0
  0
INSERT
  5
2A7
100
AcDbEntity
  8
1
  6
CONTINUOUS
 62
     1
100
AcDbBlockReference
  2
LDR
 10
108.846167
 20
-314.522583
 30
0.0
 41
241.920328
 42
241.920328
 50
110.215395
210
0.0
220
0.0
230
1.0
  0
TEXT
  5
2A8
100
AcDbEntity
  8
1
  6
CONTINUOUS
 62
     7
100
AcDbText
 10
57.106167
 20
-208.722583
 30
0.0
 40
2.016
  1
EXTRUDED RIB
  7
MONOTXT
 72
     4
 11
68.0195
 21
-207.714583
 31
0.0
210
0.0
220
0.0
230
1.0
100
AcDbText
  0
TEXT
  5
2A9
100
AcDbEntity
  8
1
  6
CONTINUOUS
 62
     7
100
AcDbText
 10
137.526167
 20
-222.342583
 30
0.0
 40
2.016
  1
U-CHANNEL
  7
MONOTXT
 72
     4
 11
145.883833
 21
-221.334583
 31
0.0
210
0.0
220
0.0
230
1.0
100
AcDbText
  0
TEXT
  5
2AA
100
AcDbEntity
  8
1
  6
CONTINUOUS
 62
     7
100
AcDbText
 10
50.806167
 20
-272.742583
 30
0.0
 40
2.016
  1
SIGN FACE
  7
MONOTXT
 72
     4
 11
58.767
 21
-271.734583
 31
0.0
210
0.0
220
0.0
230
1.0
100
AcDbText
  0
TEXT
  5
2AB
100
AcDbEntity
  8
1
  6
CONTINUOUS
 62
     7
100
AcDbText
 10
130.466167
 20
-316.062583
 30
0.0
 40
2.016
  1
U-CHANNEL
  7
MONOTXT
 72
     4
 11
138.823833
 21
-315.054583
 31
0.0
210
0.0
220
0.0
230
1.0
100
AcDbText
  0
TEXT
  5
2AC
100
AcDbEntity
  8
1
  6
CONTINUOUS
 62
     7
100
AcDbText
 10
119.886167
 20
-328.722583
 30
0.0
 40
2.016
  1
EXTRUDED RIB
  7
MONOTXT
 72
     4
 11
130.7995
 21
-327.714583
 31
0.0
210
0.0
220
0.0
230
1.0
100
AcDbText
  0
TEXT
  5
2AD
100
AcDbEntity
  8
1
  6
CONTINUOUS
 62
     7
100
AcDbText
 10
95.006167
 20
-267.062583
 30
0.0
 40
3.024
  1
ELEV.
  7
MONOTXT
 72
     4
 11
101.066
 21
-265.550583
 31
0.0
210
0.0
220
0.0
230
1.0
100
AcDbText
  0
TEXT
  5
2AE
100
AcDbEntity
  8
1
  6
CONTINUOUS
 62
     7
100
AcDbText
 10
95.226167
 20
-325.522583
 30
0.0
 40
3.024
  1
PLAN
  7
MONOTXT
 72
     4
 11
100.524083
 21
-324.010583
 31
0.0
210
0.0
220
0.0
230
1.0
100
AcDbText
  0
LINE
  5
2AF
100
AcDbEntity
  8
1
  6
CONTINUOUS
 62
     7
100
AcDbLine
 10
80.61375
 20
-341.825333
 30
0.0
 11
144.295167
 21
-341.825333
 31
0.0
  0
LINE
  5
2B0
100
AcDbEntity
  8
1
  6
CONTINUOUS
 62
     7
100
AcDbLine
 10
80.07175
 20
-349.222583
 30
0.0
 11
144.159667
 21
-349.222583
 31
0.0
  0
TEXT
  5
2B1
100
AcDbEntity
  8
1
  6
CONTINUOUS
 62
     7
100
AcDbText
 10
81.359833
 20
-340.732
 30
0.0
 40
4.5
  1
TYPICAL U-CHANNEL
  7
TXT
 72
     4
 11
112.1835
 21
-338.482
 31
0.0
210
0.0
220
0.0
230
1.0
100
AcDbText
  0
TEXT
  5
2B2
100
AcDbEntity
  8
1
  6
CONTINUOUS
 62
     7
100
AcDbText
 10
81.441
 20
-348.232
 30
0.0
 40
4.5
  1
AND RIB ASSEMBLY
  7
TXT
 72
     4
 11
112.1835
 21
-345.982
 31
0.0
210
0.0
220
0.0
230
1.0
100
AcDbText
  0
LINE
  5
2B3
100
AcDbEntity
  8
1
  6
CONTINUOUS
 62
   132
100
AcDbLine
 10
323.18125
 20
25.543333
 30
0.0
 11
362.18125
 21
25.543333
 31
0.0
  0
LINE
  5
2B4
100
AcDbEntity
  8
1
  6
CONTINUOUS
 62
   132
100
AcDbLine
 10
362.18125
 20
25.543333
 30
0.0
 11
362.18125
 21
-28.456667
 31
0.0
  0
LINE
  5
2B5
100
AcDbEntity
  8
1
  6
CONTINUOUS
 62
   132
100
AcDbLine
 10
362.18125
 20
-28.456667
 30
0.0
 11
323.18125
 21
-28.456667
 31
0.0
  0
LINE
  5
2B6
100
AcDbEntity
  8
1
  6
CONTINUOUS
 62
   132
100
AcDbLine
 10
323.18125
 20
-28.456667
 30
0.0
 11
323.18125
 21
25.543333
 31
0.0
  0
LINE
  5
2B7
100
AcDbEntity
  8
1
  6
CONTINUOUS
 62
     7
100
AcDbLine
 10
342.68125
 20
-0.456667
 30
0.0
 11
342.68125
 21
-2.456667
 31
0.0
  0
LINE
  5
2B8
100
AcDbEntity
  8
1
  6
CONTINUOUS
 62
     7
100
AcDbLine
 10
342.68125
 20
37.543333
 30
0.0
 11
342.68125
 21
16.543333
 31
0.0
  0
LINE
  5
2B9
100
AcDbEntity
  8
1
  6
CONTINUOUS
 62
   132
100
AcDbLine
 10
362.18125
 20
-129.456667
 30
0.0
 11
323.18125
 21
-129.456667
 31
0.0
  0
LINE
  5
2BA
100
AcDbEntity
  8
1
  6
CONTINUOUS
 62
   132
100
AcDbLine
 10
362.18125
 20
-128.456667
 30
0.0
 11
323.18125
 21
-128.456667
 31
0.0
  0
LINE
  5
2BB
100
AcDbEntity
  8
1
  6
CONTINUOUS
 62
   132
100
AcDbLine
 10
323.18125
 20
-128.456667
 30
0.0
 11
323.18125
 21
-129.456667
 31
0.0
  0
LINE
  5
2BC
100
AcDbEntity
  8
1
  6
CONTINUOUS
 62
   132
100
AcDbLine
 10
362.18125
 20
-128.456667
 30
0.0
 11
362.18125
 21
-129.456667
 31
0.0
  0
LINE
  5
2BD
100
AcDbEntity
  8
1
  6
CONTINUOUS
 62
   132
100
AcDbLine
 10
357.287083
 20
-130.456667
 30
0.0
 11
355.287083
 21
-130.456667
 31
0.0
  0
LINE
  5
2BE
100
AcDbEntity
  8
1
  6
CONTINUOUS
 62
   132
100
AcDbLine
 10
355.287083
 20
-130.456667
 30
0.0
 11
355.287083
 21
-129.456667
 31
0.0
  0
LINE
  5
2BF
100
AcDbEntity
  8
1
  6
CONTINUOUS
 62
   132
100
AcDbLine
 10
357.287083
 20
-130.456667
 30
0.0
 11
357.287083
 21
-129.456667
 31
0.0
  0
LINE
  5
2C0
100
AcDbEntity
  8
1
  6
CONTINUOUS
 62
     7
100
AcDbLine
 10
342.68125
 20
-124.581667
 30
0.0
 11
342.68125
 21
-116.956667
 31
0.0
  0
LINE
  5
2C1
100
AcDbEntity
  8
1
  6
CONTINUOUS
 62
     7
100
AcDbLine
 10
342.68125
 20
-134.456667
 30
0.0
 11
342.68125
 21
-126.581667
 31
0.0
  0
LINE
  5
2C2
100
AcDbEntity
  8
1
  6
CONTINUOUS
 62
     7
100
AcDbLine
 10
342.68125
 20
-126.081667
 30
0.0
 11
342.68125
 21
-125.081667
 31
0.0
  0
LINE
  5
2C3
100
AcDbEntity
  8
1
  6
CONTINUOUS
 62
     7
100
AcDbLine
 10
333.696083
 20
-129.579
 30
0.0
 11
338.382083
 21
-138.122333
 31
0.0
  0
LINE
  5
2C4
100
AcDbEntity
  8
1
  6
CONTINUOUS
 62
     7
100
AcDbLine
 10
338.382083
 20
-138.122333
 30
0.0
 11
341.296083
 21
-138.122333
 31
0.0
  0
INSERT
  5
2C5
100
AcDbEntity
  8
1
  6
CONTINUOUS
 62
     1
100
AcDbBlockReference
  2
LDR
 10
333.696083
 20
-129.579
 30
0.0
 41
239.999999
 42
239.999999
 50
118.744674
210
0.0
220
0.0
230
1.0
  0
LINE
  5
2C6
100
AcDbEntity
  8
1
  6
CONTINUOUS
 62
   132
100
AcDbLine
 10
389.18125
 20
-44.456667
 30
0.0
 11
389.18125
 21
-98.456667
 31
0.0
  0
LINE
  5
2C7
100
AcDbEntity
  8
1
  6
CONTINUOUS
 62
   132
100
AcDbLine
 10
390.18125
 20
-44.456667
 30
0.0
 11
390.18125
 21
-98.456667
 31
0.0
  0
LINE
  5
2C8
100
AcDbEntity
  8
1
  6
CONTINUOUS
 62
   132
100
AcDbLine
 10
389.18125
 20
-44.456667
 30
0.0
 11
390.18125
 21
-44.456667
 31
0.0
  0
LINE
  5
2C9
100
AcDbEntity
  8
1
  6
CONTINUOUS
 62
   132
100
AcDbLine
 10
389.18125
 20
-98.456667
 30
0.0
 11
390.18125
 21
-98.456667
 31
0.0
  0
LINE
  5
2CA
100
AcDbEntity
  8
1
  6
CONTINUOUS
 62
   132
100
AcDbLine
 10
397.18125
 20
-51.956667
 30
0.0
 11
397.18125
 21
-115.956667
 31
0.0
  0
LINE
  5
2CB
100
AcDbEntity
  8
1
  6
CONTINUOUS
 62
   132
100
AcDbLine
 10
398.18125
 20
-51.956667
 30
0.0
 11
398.18125
 21
-115.956667
 31
0.0
  0
LINE
  5
2CC
100
AcDbEntity
  8
1
  6
CONTINUOUS
 62
   132
100
AcDbLine
 10
401.68125
 20
-51.956667
 30
0.0
 11
401.68125
 21
-115.956667
 31
0.0
  0
LINE
  5
2CD
100
AcDbEntity
  8
1
  6
CONTINUOUS
 62
   132
100
AcDbLine
 10
397.18125
 20
-51.956667
 30
0.0
 11
401.68125
 21
-51.956667
 31
0.0
  0
LINE
  5
2CE
100
AcDbEntity
  8
1
  6
CONTINUOUS
 62
   132
100
AcDbLine
 10
401.68125
 20
-57.581667
 30
0.0
 11
402.68125
 21
-57.581667
 31
0.0
  0
LINE
  5
2CF
100
AcDbEntity
  8
1
  6
CONTINUOUS
 62
   132
100
AcDbLine
 10
401.68125
 20
-59.581667
 30
0.0
 11
402.68125
 21
-59.581667
 31
0.0
  0
LINE
  5
2D0
100
AcDbEntity
  8
1
  6
CONTINUOUS
 62
   132
100
AcDbLine
 10
402.68125
 20
-57.581667
 30
0.0
 11
402.68125
 21
-59.581667
 31
0.0
  0
LINE
  5
2D1
100
AcDbEntity
  8
1
  6
CONTINUOUS
 62
   132
100
AcDbLine
 10
388.18125
 20
-54.456667
 30
0.0
 11
388.18125
 21
-56.456667
 31
0.0
  0
LINE
  5
2D2
100
AcDbEntity
  8
1
  6
CONTINUOUS
 62
   132
100
AcDbLine
 10
389.18125
 20
-54.456667
 30
0.0
 11
388.18125
 21
-54.456667
 31
0.0
  0
LINE
  5
2D3
100
AcDbEntity
  8
1
  6
CONTINUOUS
 62
   132
100
AcDbLine
 10
389.18125
 20
-56.456667
 30
0.0
 11
388.18125
 21
-56.456667
 31
0.0
  0
LINE
  5
2D4
100
AcDbEntity
  8
1
  6
CONTINUOUS
 62
     7
100
AcDbLine
 10
405.18125
 20
-58.581667
 30
0.0
 11
403.93125
 21
-58.581667
 31
0.0
  0
LINE
  5
2D5
100
AcDbEntity
  8
1
  6
CONTINUOUS
 62
     7
100
AcDbLine
 10
387.18125
 20
-71.456667
 30
0.0
 11
392.30625
 21
-71.456667
 31
0.0
  0
LINE
  5
2D6
100
AcDbEntity
  8
1
  6
CONTINUOUS
 62
     7
100
AcDbLine
 10
392.80625
 20
-71.456667
 30
0.0
 11
393.80625
 21
-71.456667
 31
0.0
  0
LINE
  5
2D7
100
AcDbEntity
  8
1
  6
CONTINUOUS
 62
     7
100
AcDbLine
 10
394.30625
 20
-71.456667
 30
0.0
 11
398.93125
 21
-71.456667
 31
0.0
  0
LINE
  5
2D8
100
AcDbEntity
  8
1
  6
CONTINUOUS
 62
     7
100
AcDbLine
 10
391.18125
 20
-44.456667
 30
0.0
 11
415.18125
 21
-44.456667
 31
0.0
  0
LINE
  5
2D9
100
AcDbEntity
  8
1
  6
CONTINUOUS
 62
     7
100
AcDbLine
 10
402.68125
 20
-51.956667
 30
0.0
 11
415.18125
 21
-51.956667
 31
0.0
  0
LINE
  5
2DA
100
AcDbEntity
  8
1
  6
CONTINUOUS
 62
     7
100
AcDbLine
 10
414.18125
 20
-44.456667
 30
0.0
 11
414.18125
 21
-39.456667
 31
0.0
  0
LINE
  5
2DB
100
AcDbEntity
  8
1
  6
CONTINUOUS
 62
     7
100
AcDbLine
 10
414.18125
 20
-51.956667
 30
0.0
 11
414.18125
 21
-56.956667
 31
0.0
  0
INSERT
  5
2DC
100
AcDbEntity
  8
1
  6
CONTINUOUS
 62
     1
100
AcDbBlockReference
  2
LDR
 10
414.173167
 20
-51.965667
 30
0.0
 41
240.0
 42
240.0
 50
90.0
210
0.0
220
0.0
230
1.0
  0
INSERT
  5
2DD
100
AcDbEntity
  8
1
  6
CONTINUOUS
 62
     1
100
AcDbBlockReference
  2
LDR
 10
414.18125
 20
-44.456667
 30
0.0
 41
240.0
 42
240.0
 50
270.0
210
0.0
220
0.0
230
1.0
  0
LINE
  5
2DE
100
AcDbEntity
  8
1
  6
CONTINUOUS
 62
     7
100
AcDbLine
 10
318.18125
 20
-1.456667
 30
0.0
 11
328.18125
 21
-1.456667
 31
0.0
  0
LINE
  5
2DF
100
AcDbEntity
  8
1
  6
CONTINUOUS
 62
     7
100
AcDbLine
 10
357.18125
 20
-1.456667
 30
0.0
 11
374.18125
 21
-1.456667
 31
0.0
  0
LINE
  5
2E0
100
AcDbEntity
  8
1
  6
CONTINUOUS
 62
     7
100
AcDbLine
 10
341.68125
 20
-1.456667
 30
0.0
 11
343.68125
 21
-1.456667
 31
0.0
  0
LINE
  5
2E1
100
AcDbEntity
  8
1
  6
CONTINUOUS
 62
     7
100
AcDbLine
 10
388.840583
 20
-77.47725
 30
0.0
 11
380.638583
 21
-77.47725
 31
0.0
  0
INSERT
  5
2E2
100
AcDbEntity
  8
1
  6
CONTINUOUS
 62
     1
100
AcDbBlockReference
  2
LDR
 10
388.840583
 20
-77.47725
 30
0.0
 41
240.0
 42
240.0
210
0.0
220
0.0
230
1.0
  0
TEXT
  5
2E3
100
AcDbEntity
  8
1
  6
CONTINUOUS
 62
     7
100
AcDbText
 10
372.030667
 20
-79.000167
 30
0.0
 40
2.5
  1
SIGN
  7
MONOTXT
 72
     4
 11
375.82
 21
-77.750167
 31
0.0
210
0.0
220
0.0
230
1.0
100
AcDbText
  0
TEXT
  5
2E4
100
AcDbEntity
  8
1
  6
CONTINUOUS
 62
     7
100
AcDbText
 10
371.381
 20
-83.500167
 30
0.0
 40
2.5
  1
FACE
  7
MONOTXT
 72
     4
 11
375.819917
 21
-82.250167
 31
0.0
210
0.0
220
0.0
230
1.0
100
AcDbText
  0
TEXT
  5
2E5
100
AcDbEntity
  8
1
  6
CONTINUOUS
 62
     7
100
AcDbText
 10
399.324333
 20
-49.531833
 30
0.0
 40
2.5
  1
GEN. NOTE 2.5.1
  7
MONOTXT
 72
     4
 11
414.540833
 21
-48.281833
 31
0.0
210
0.0
220
0.0
230
1.0
100
AcDbText
  0
LINE
  5
2E6
100
AcDbEntity
  8
1
  6
CONTINUOUS
 62
     7
100
AcDbLine
 10
330.242167
 20
-170.460833
 30
0.0
 11
406.767667
 21
-170.460833
 31
0.0
  0
CIRCLE
  5
2E7
100
AcDbEntity
  8
1
  6
CONTINUOUS
 62
   132
100
AcDbCircle
 10
330.18125
 20
14.543333
 30
0.0
 40
1.0
210
0.0
220
0.0
230
1.0
  0
LINE
  5
2E8
100
AcDbEntity
  8
1
  6
CONTINUOUS
 62
     7
100
AcDbLine
 10
330.18125
 20
15.043333
 30
0.0
 11
330.18125
 21
14.043333
 31
0.0
  0
LINE
  5
2E9
100
AcDbEntity
  8
1
  6
CONTINUOUS
 62
     7
100
AcDbLine
 10
329.68125
 20
14.543333
 30
0.0
 11
330.68125
 21
14.543333
 31
0.0
  0
CIRCLE
  5
2EA
100
AcDbEntity
  8
1
  6
CONTINUOUS
 62
   132
100
AcDbCircle
 10
355.18125
 20
14.543333
 30
0.0
 40
1.0
210
0.0
220
0.0
230
1.0
  0
LINE
  5
2EB
100
AcDbEntity
  8
1
  6
CONTINUOUS
 62
     7
100
AcDbLine
 10
355.18125
 20
15.043333
 30
0.0
 11
355.18125
 21
14.043333
 31
0.0
  0
LINE
  5
2EC
100
AcDbEntity
  8
1
  6
CONTINUOUS
 62
     7
100
AcDbLine
 10
354.68125
 20
14.543333
 30
0.0
 11
355.68125
 21
14.543333
 31
0.0
  0
CIRCLE
  5
2ED
100
AcDbEntity
  8
1
  6
CONTINUOUS
 62
   132
100
AcDbCircle
 10
355.18125
 20
-17.456667
 30
0.0
 40
1.0
210
0.0
220
0.0
230
1.0
  0
LINE
  5
2EE
100
AcDbEntity
  8
1
  6
CONTINUOUS
 62
     7
100
AcDbLine
 10
355.18125
 20
-16.956667
 30
0.0
 11
355.18125
 21
-17.956667
 31
0.0
  0
LINE
  5
2EF
100
AcDbEntity
  8
1
  6
CONTINUOUS
 62
     7
100
AcDbLine
 10
354.68125
 20
-17.456667
 30
0.0
 11
355.68125
 21
-17.456667
 31
0.0
  0
CIRCLE
  5
2F0
100
AcDbEntity
  8
1
  6
CONTINUOUS
 62
   132
100
AcDbCircle
 10
330.18125
 20
-17.456667
 30
0.0
 40
1.0
210
0.0
220
0.0
230
1.0
  0
LINE
  5
2F1
100
AcDbEntity
  8
1
  6
CONTINUOUS
 62
     7
100
AcDbLine
 10
330.18125
 20
-16.956667
 30
0.0
 11
330.18125
 21
-17.956667
 31
0.0
  0
LINE
  5
2F2
100
AcDbEntity
  8
1
  6
CONTINUOUS
 62
     7
100
AcDbLine
 10
329.68125
 20
-17.456667
 30
0.0
 11
330.68125
 21
-17.456667
 31
0.0
  0
LINE
  5
2F3
100
AcDbEntity
  8
1
  6
CONTINUOUS
 62
     7
100
AcDbLine
 10
329.18125
 20
-1.456667
 30
0.0
 11
331.18125
 21
-1.456667
 31
0.0
  0
LINE
  5
2F4
100
AcDbEntity
  8
1
  6
CONTINUOUS
 62
     7
100
AcDbLine
 10
332.18125
 20
-1.456667
 30
0.0
 11
340.68125
 21
-1.456667
 31
0.0
  0
LINE
  5
2F5
100
AcDbEntity
  8
1
  6
CONTINUOUS
 62
     7
100
AcDbLine
 10
344.68125
 20
-1.456667
 30
0.0
 11
353.18125
 21
-1.456667
 31
0.0
  0
LINE
  5
2F6
100
AcDbEntity
  8
1
  6
CONTINUOUS
 62
     7
100
AcDbLine
 10
354.18125
 20
-1.456667
 30
0.0
 11
356.18125
 21
-1.456667
 31
0.0
  0
LINE
  5
2F7
100
AcDbEntity
  8
1
  6
CONTINUOUS
 62
     7
100
AcDbLine
 10
342.68125
 20
-19.456667
 30
0.0
 11
342.68125
 21
-33.456667
 31
0.0
  0
LINE
  5
2F8
100
AcDbEntity
  8
1
  6
CONTINUOUS
 62
     7
100
AcDbLine
 10
342.68125
 20
15.543333
 30
0.0
 11
342.68125
 21
13.543333
 31
0.0
  0
LINE
  5
2F9
100
AcDbEntity
  8
1
  6
CONTINUOUS
 62
     7
100
AcDbLine
 10
342.68125
 20
12.543333
 30
0.0
 11
342.68125
 21
0.543333
 31
0.0
  0
LINE
  5
2FA
100
AcDbEntity
  8
1
  6
CONTINUOUS
 62
     7
100
AcDbLine
 10
342.68125
 20
-18.456667
 30
0.0
 11
342.68125
 21
-16.456667
 31
0.0
  0
LINE
  5
2FB
100
AcDbEntity
  8
1
  6
CONTINUOUS
 62
     7
100
AcDbLine
 10
342.68125
 20
-15.456667
 30
0.0
 11
342.68125
 21
-3.456667
 31
0.0
  0
LINE
  5
2FC
100
AcDbEntity
  8
1
  6
CONTINUOUS
 62
     7
100
AcDbLine
 10
330.18125
 20
16.543333
 30
0.0
 11
330.18125
 21
37.543333
 31
0.0
  0
LINE
  5
2FD
100
AcDbEntity
  8
1
  6
CONTINUOUS
 62
     7
100
AcDbLine
 10
355.18125
 20
16.543333
 30
0.0
 11
355.18125
 21
37.543333
 31
0.0
  0
LINE
  5
2FE
100
AcDbEntity
  8
1
  6
CONTINUOUS
 62
     7
100
AcDbLine
 10
330.18125
 20
-23.456667
 30
0.0
 11
330.18125
 21
-19.456667
 31
0.0
  0
LINE
  5
2FF
100
AcDbEntity
  8
1
  6
CONTINUOUS
 62
     7
100
AcDbLine
 10
355.18125
 20
-23.456667
 30
0.0
 11
355.18125
 21
-19.456667
 31
0.0
  0
LINE
  5
300
100
AcDbEntity
  8
1
  6
CONTINUOUS
 62
     7
100
AcDbLine
 10
328.18125
 20
14.543333
 30
0.0
 11
324.18125
 21
14.543333
 31
0.0
  0
LINE
  5
301
100
AcDbEntity
  8
1
  6
CONTINUOUS
 62
     7
100
AcDbLine
 10
328.18125
 20
-17.456667
 30
0.0
 11
324.18125
 21
-17.456667
 31
0.0
  0
LINE
  5
302
100
AcDbEntity
  8
1
  6
CONTINUOUS
 62
     7
100
AcDbLine
 10
374.18125
 20
14.543333
 30
0.0
 11
357.18125
 21
14.543333
 31
0.0
  0
LINE
  5
303
100
AcDbEntity
  8
1
  6
CONTINUOUS
 62
     7
100
AcDbLine
 10
374.18125
 20
-17.456667
 30
0.0
 11
357.18125
 21
-17.456667
 31
0.0
  0
LINE
  5
304
100
AcDbEntity
  8
1
  6
CONTINUOUS
 62
     7
100
AcDbLine
 10
330.18125
 20
12.543333
 30
0.0
 11
330.18125
 21
8.543333
 31
0.0
  0
LINE
  5
305
100
AcDbEntity
  8
1
  6
CONTINUOUS
 62
     7
100
AcDbLine
 10
355.18125
 20
12.543333
 30
0.0
 11
355.18125
 21
8.543333
 31
0.0
  0
LINE
  5
306
100
AcDbEntity
  8
1
  6
CONTINUOUS
 62
     7
100
AcDbLine
 10
355.18125
 20
-11.456667
 30
0.0
 11
355.18125
 21
-15.456667
 31
0.0
  0
LINE
  5
307
100
AcDbEntity
  8
1
  6
CONTINUOUS
 62
     7
100
AcDbLine
 10
330.18125
 20
-11.456667
 30
0.0
 11
330.18125
 21
-15.456667
 31
0.0
  0
LINE
  5
308
100
AcDbEntity
  8
1
  6
CONTINUOUS
 62
     7
100
AcDbLine
 10
332.18125
 20
14.543333
 30
0.0
 11
336.18125
 21
14.543333
 31
0.0
  0
LINE
  5
309
100
AcDbEntity
  8
1
  6
CONTINUOUS
 62
     7
100
AcDbLine
 10
349.18125
 20
14.543333
 30
0.0
 11
353.18125
 21
14.543333
 31
0.0
  0
LINE
  5
30A
100
AcDbEntity
  8
1
  6
CONTINUOUS
 62
     7
100
AcDbLine
 10
332.18125
 20
-17.456667
 30
0.0
 11
336.18125
 21
-17.456667
 31
0.0
  0
LINE
  5
30B
100
AcDbEntity
  8
1
  6
CONTINUOUS
 62
     7
100
AcDbLine
 10
349.18125
 20
-17.456667
 30
0.0
 11
353.18125
 21
-17.456667
 31
0.0
  0
LINE
  5
30C
100
AcDbEntity
  8
1
  6
CONTINUOUS
 62
     7
100
AcDbLine
 10
330.18125
 20
36.543333
 30
0.0
 11
342.68125
 21
36.543333
 31
0.0
  0
LINE
  5
30D
100
AcDbEntity
  8
1
  6
CONTINUOUS
 62
     7
100
AcDbLine
 10
342.68125
 20
36.543333
 30
0.0
 11
355.18125
 21
36.543333
 31
0.0
  0
LINE
  5
30E
100
AcDbEntity
  8
1
  6
CONTINUOUS
 62
     7
100
AcDbLine
 10
373.18125
 20
14.543333
 30
0.0
 11
373.18125
 21
-1.456667
 31
0.0
  0
LINE
  5
30F
100
AcDbEntity
  8
1
  6
CONTINUOUS
 62
     7
100
AcDbLine
 10
373.18125
 20
-1.456667
 30
0.0
 11
373.18125
 21
-17.456667
 31
0.0
  0
INSERT
  5
310
100
AcDbEntity
  8
1
  6
CONTINUOUS
 62
     1
100
AcDbBlockReference
  2
LDR
 10
330.18125
 20
36.543333
 30
0.0
 41
240.0
 42
240.0
 50
180.0
210
0.0
220
0.0
230
1.0
  0
INSERT
  5
311
100
AcDbEntity
  8
1
  6
CONTINUOUS
 62
     1
100
AcDbBlockReference
  2
LDR
 10
330.18125
 20
36.543333
 30
0.0
 41
240.0
 42
240.0
 50
180.0
210
0.0
220
0.0
230
1.0
  0
INSERT
  5
312
100
AcDbEntity
  8
1
  6
CONTINUOUS
 62
     1
100
AcDbBlockReference
  2
LDR
 10
342.68125
 20
36.543333
 30
0.0
 41
240.0
 42
240.0
210
0.0
220
0.0
230
1.0
  0
INSERT
  5
313
100
AcDbEntity
  8
1
  6
CONTINUOUS
 62
     1
100
AcDbBlockReference
  2
LDR
 10
342.68125
 20
36.543333
 30
0.0
 41
240.0
 42
240.0
210
0.0
220
0.0
230
1.0
  0
INSERT
  5
314
100
AcDbEntity
  8
1
  6
CONTINUOUS
 62
     1
100
AcDbBlockReference
  2
LDR
 10
342.68125
 20
36.543333
 30
0.0
 41
240.0
 42
240.0
 50
180.0
210
0.0
220
0.0
230
1.0
  0
INSERT
  5
315
100
AcDbEntity
  8
1
  6
CONTINUOUS
 62
     1
100
AcDbBlockReference
  2
LDR
 10
342.68125
 20
36.543333
 30
0.0
 41
240.0
 42
240.0
 50
180.0
210
0.0
220
0.0
230
1.0
  0
INSERT
  5
316
100
AcDbEntity
  8
1
  6
CONTINUOUS
 62
     1
100
AcDbBlockReference
  2
LDR
 10
355.18125
 20
36.543333
 30
0.0
 41
240.0
 42
240.0
210
0.0
220
0.0
230
1.0
  0
INSERT
  5
317
100
AcDbEntity
  8
1
  6
CONTINUOUS
 62
     1
100
AcDbBlockReference
  2
LDR
 10
355.18125
 20
36.543333
 30
0.0
 41
240.0
 42
240.0
210
0.0
220
0.0
230
1.0
  0
INSERT
  5
318
100
AcDbEntity
  8
1
  6
CONTINUOUS
 62
     1
100
AcDbBlockReference
  2
LDR
 10
373.18125
 20
14.543333
 30
0.0
 41
240.0
 42
240.0
 50
90.0
210
0.0
220
0.0
230
1.0
  0
INSERT
  5
319
100
AcDbEntity
  8
1
  6
CONTINUOUS
 62
     1
100
AcDbBlockReference
  2
LDR
 10
373.18125
 20
14.543333
 30
0.0
 41
240.0
 42
240.0
 50
90.0
210
0.0
220
0.0
230
1.0
  0
INSERT
  5
31A
100
AcDbEntity
  8
1
  6
CONTINUOUS
 62
     1
100
AcDbBlockReference
  2
LDR
 10
373.18125
 20
-1.456667
 30
0.0
 41
240.0
 42
240.0
 50
270.0
210
0.0
220
0.0
230
1.0
  0
INSERT
  5
31B
100
AcDbEntity
  8
1
  6
CONTINUOUS
 62
     1
100
AcDbBlockReference
  2
LDR
 10
373.18125
 20
-1.456667
 30
0.0
 41
240.0
 42
240.0
 50
270.0
210
0.0
220
0.0
230
1.0
  0
INSERT
  5
31C
100
AcDbEntity
  8
1
  6
CONTINUOUS
 62
     1
100
AcDbBlockReference
  2
LDR
 10
373.18125
 20
-1.456667
 30
0.0
 41
240.0
 42
240.0
 50
90.0
210
0.0
220
0.0
230
1.0
  0
INSERT
  5
31D
100
AcDbEntity
  8
1
  6
CONTINUOUS
 62
     1
100
AcDbBlockReference
  2
LDR
 10
373.18125
 20
-1.456667
 30
0.0
 41
240.0
 42
240.0
 50
90.0
210
0.0
220
0.0
230
1.0
  0
INSERT
  5
31E
100
AcDbEntity
  8
1
  6
CONTINUOUS
 62
     1
100
AcDbBlockReference
  2
LDR
 10
373.18125
 20
-1.456667
 30
0.0
 41
240.0
 42
240.0
 50
90.0
210
0.0
220
0.0
230
1.0
  0
INSERT
  5
31F
100
AcDbEntity
  8
1
  6
CONTINUOUS
 62
     1
100
AcDbBlockReference
  2
LDR
 10
373.18125
 20
-17.456667
 30
0.0
 41
240.0
 42
240.0
 50
270.0
210
0.0
220
0.0
230
1.0
  0
LINE
  5
320
100
AcDbEntity
  8
1
  6
CONTINUOUS
 62
   132
100
AcDbLine
 10
323.18125
 20
-44.456667
 30
0.0
 11
362.18125
 21
-44.456667
 31
0.0
  0
LINE
  5
321
100
AcDbEntity
  8
1
  6
CONTINUOUS
 62
   132
100
AcDbLine
 10
362.18125
 20
-44.456667
 30
0.0
 11
362.18125
 21
-98.456667
 31
0.0
  0
LINE
  5
322
100
AcDbEntity
  8
1
  6
CONTINUOUS
 62
   132
100
AcDbLine
 10
362.18125
 20
-98.456667
 30
0.0
 11
323.18125
 21
-98.456667
 31
0.0
  0
LINE
  5
323
100
AcDbEntity
  8
1
  6
CONTINUOUS
 62
   132
100
AcDbLine
 10
323.18125
 20
-98.456667
 30
0.0
 11
323.18125
 21
-44.456667
 31
0.0
  0
LINE
  5
324
100
AcDbEntity
  8
1
  6
CONTINUOUS
 62
     7
100
AcDbLine
 10
342.68125
 20
-70.456667
 30
0.0
 11
342.68125
 21
-72.456667
 31
0.0
  0
LINE
  5
325
100
AcDbEntity
  8
1
  6
CONTINUOUS
 62
     7
100
AcDbLine
 10
318.18125
 20
-71.456667
 30
0.0
 11
330.18125
 21
-71.456667
 31
0.0
  0
CIRCLE
  5
326
100
AcDbEntity
  8
1
  6
CONTINUOUS
 62
   132
100
AcDbCircle
 10
330.18125
 20
-55.456667
 30
0.0
 40
1.0
210
0.0
220
0.0
230
1.0
  0
LINE
  5
327
100
AcDbEntity
  8
1
  6
CONTINUOUS
 62
     7
100
AcDbLine
 10
330.18125
 20
-54.956667
 30
0.0
 11
330.18125
 21
-55.956667
 31
0.0
  0
LINE
  5
328
100
AcDbEntity
  8
1
  6
CONTINUOUS
 62
     7
100
AcDbLine
 10
329.68125
 20
-55.456667
 30
0.0
 11
330.68125
 21
-55.456667
 31
0.0
  0
LINE
  5
329
100
AcDbEntity
  8
1
  6
CONTINUOUS
 62
     7
100
AcDbLine
 10
331.18125
 20
-71.456667
 30
0.0
 11
333.18125
 21
-71.456667
 31
0.0
  0
LINE
  5
32A
100
AcDbEntity
  8
1
  6
CONTINUOUS
 62
     7
100
AcDbLine
 10
334.18125
 20
-71.456667
 30
0.0
 11
342.68125
 21
-71.456667
 31
0.0
  0
LINE
  5
32B
100
AcDbEntity
  8
1
  6
CONTINUOUS
 62
     7
100
AcDbLine
 10
342.68125
 20
-71.456667
 30
0.0
 11
351.18125
 21
-71.456667
 31
0.0
  0
LINE
  5
32C
100
AcDbEntity
  8
1
  6
CONTINUOUS
 62
     7
100
AcDbLine
 10
352.18125
 20
-71.456667
 30
0.0
 11
354.18125
 21
-71.456667
 31
0.0
  0
LINE
  5
32D
100
AcDbEntity
  8
1
  6
CONTINUOUS
 62
     7
100
AcDbLine
 10
342.68125
 20
-89.456667
 30
0.0
 11
342.68125
 21
-103.456667
 31
0.0
  0
LINE
  5
32E
100
AcDbEntity
  8
1
  6
CONTINUOUS
 62
     7
100
AcDbLine
 10
342.68125
 20
-54.456667
 30
0.0
 11
342.68125
 21
-56.456667
 31
0.0
  0
LINE
  5
32F
100
AcDbEntity
  8
1
  6
CONTINUOUS
 62
     7
100
AcDbLine
 10
342.68125
 20
-57.456667
 30
0.0
 11
342.68125
 21
-71.456667
 31
0.0
  0
LINE
  5
330
100
AcDbEntity
  8
1
  6
CONTINUOUS
 62
     7
100
AcDbLine
 10
342.68125
 20
-88.456667
 30
0.0
 11
342.68125
 21
-86.456667
 31
0.0
  0
LINE
  5
331
100
AcDbEntity
  8
1
  6
CONTINUOUS
 62
     7
100
AcDbLine
 10
342.68125
 20
-85.456667
 30
0.0
 11
342.68125
 21
-71.456667
 31
0.0
  0
LINE
  5
332
100
AcDbEntity
  8
1
  6
CONTINUOUS
 62
     7
100
AcDbLine
 10
328.18125
 20
-55.456667
 30
0.0
 11
326.18125
 21
-55.456667
 31
0.0
  0
LINE
  5
333
100
AcDbEntity
  8
1
  6
CONTINUOUS
 62
     7
100
AcDbLine
 10
330.18125
 20
-57.456667
 30
0.0
 11
330.18125
 21
-58.456667
 31
0.0
  0
LINE
  5
334
100
AcDbEntity
  8
1
  6
CONTINUOUS
 62
     7
100
AcDbLine
 10
332.18125
 20
-55.456667
 30
0.0
 11
334.18125
 21
-55.456667
 31
0.0
  0
LINE
  5
335
100
AcDbEntity
  8
1
  6
CONTINUOUS
 62
     7
100
AcDbLine
 10
330.18125
 20
-53.456667
 30
0.0
 11
330.18125
 21
-52.456667
 31
0.0
  0
LINE
  5
336
100
AcDbEntity
  8
1
  6
CONTINUOUS
 62
     7
100
AcDbLine
 10
355.18125
 20
-71.456667
 30
0.0
 11
367.18125
 21
-71.456667
 31
0.0
  0
LINE
  5
337
100
AcDbEntity
  8
1
  6
CONTINUOUS
 62
     7
100
AcDbLine
 10
342.68125
 20
-53.456667
 30
0.0
 11
342.68125
 21
-39.456667
 31
0.0
  0
LINE
  5
338
100
AcDbEntity
  8
1
  6
HIDDEN
 62
   132
100
AcDbLine
 10
324.93125
 20
-50.956667
 30
0.0
 11
324.93125
 21
-98.456667
 31
0.0
  0
LINE
  5
339
100
AcDbEntity
  8
1
  6
HIDDEN
 62
   132
100
AcDbLine
 10
328.93125
 20
-50.956667
 30
0.0
 11
328.93125
 21
-98.456667
 31
0.0
  0
LINE
  5
33A
100
AcDbEntity
  8
1
  6
HIDDEN
 62
   132
100
AcDbLine
 10
356.43125
 20
-50.956667
 30
0.0
 11
356.43125
 21
-98.456667
 31
0.0
  0
LINE
  5
33B
100
AcDbEntity
  8
1
  6
HIDDEN
 62
   132
100
AcDbLine
 10
360.43125
 20
-50.956667
 30
0.0
 11
360.43125
 21
-98.456667
 31
0.0
  0
LINE
  5
33C
100
AcDbEntity
  8
1
  6
HIDDEN
 62
   132
100
AcDbLine
 10
357.18125
 20
-50.956667
 30
0.0
 11
357.18125
 21
-98.456667
 31
0.0
  0
LINE
  5
33D
100
AcDbEntity
  8
1
  6
HIDDEN
 62
   132
100
AcDbLine
 10
359.68125
 20
-50.956667
 30
0.0
 11
359.68125
 21
-98.456667
 31
0.0
  0
LINE
  5
33E
100
AcDbEntity
  8
1
  6
CONTINUOUS
 62
   132
100
AcDbLine
 10
324.93125
 20
-98.456667
 30
0.0
 11
324.93125
 21
-111.456667
 31
0.0
  0
LINE
  5
33F
100
AcDbEntity
  8
1
  6
CONTINUOUS
 62
   132
100
AcDbLine
 10
325.68125
 20
-98.456667
 30
0.0
 11
325.68125
 21
-111.456667
 31
0.0
  0
LINE
  5
340
100
AcDbEntity
  8
1
  6
CONTINUOUS
 62
   132
100
AcDbLine
 10
328.18125
 20
-98.456667
 30
0.0
 11
328.18125
 21
-111.456667
 31
0.0
  0
LINE
  5
341
100
AcDbEntity
  8
1
  6
CONTINUOUS
 62
   132
100
AcDbLine
 10
328.93125
 20
-98.456667
 30
0.0
 11
328.93125
 21
-111.456667
 31
0.0
  0
LINE
  5
342
100
AcDbEntity
  8
1
  6
CONTINUOUS
 62
   132
100
AcDbLine
 10
356.43125
 20
-98.456667
 30
0.0
 11
356.43125
 21
-111.456667
 31
0.0
  0
LINE
  5
343
100
AcDbEntity
  8
1
  6
CONTINUOUS
 62
   132
100
AcDbLine
 10
357.18125
 20
-98.456667
 30
0.0
 11
357.18125
 21
-111.456667
 31
0.0
  0
LINE
  5
344
100
AcDbEntity
  8
1
  6
CONTINUOUS
 62
   132
100
AcDbLine
 10
359.68125
 20
-98.456667
 30
0.0
 11
359.68125
 21
-111.456667
 31
0.0
  0
LINE
  5
345
100
AcDbEntity
  8
1
  6
CONTINUOUS
 62
   132
100
AcDbLine
 10
360.43125
 20
-98.456667
 30
0.0
 11
360.43125
 21
-111.456667
 31
0.0
  0
LINE
  5
346
100
AcDbEntity
  8
1
  6
HIDDEN
 62
   132
100
AcDbLine
 10
323.93125
 20
-52.956667
 30
0.0
 11
361.43125
 21
-52.956667
 31
0.0
  0
LINE
  5
347
100
AcDbEntity
  8
1
  6
HIDDEN
 62
   132
100
AcDbLine
 10
323.93125
 20
-56.706667
 30
0.0
 11
361.43125
 21
-56.706667
 31
0.0
  0
LINE
  5
348
100
AcDbEntity
  8
1
  6
HIDDEN
 62
   132
100
AcDbLine
 10
324.93125
 20
-50.956667
 30
0.0
 11
328.93125
 21
-50.956667
 31
0.0
  0
LINE
  5
349
100
AcDbEntity
  8
1
  6
HIDDEN
 62
   132
100
AcDbLine
 10
356.43125
 20
-50.956667
 30
0.0
 11
360.43125
 21
-50.956667
 31
0.0
  0
LINE
  5
34A
100
AcDbEntity
  8
1
  6
HIDDEN
 62
   132
100
AcDbLine
 10
323.93125
 20
-52.956667
 30
0.0
 11
323.93125
 21
-60.456667
 31
0.0
  0
LINE
  5
34B
100
AcDbEntity
  8
1
  6
HIDDEN
 62
   132
100
AcDbLine
 10
361.43125
 20
-52.956667
 30
0.0
 11
361.43125
 21
-60.456667
 31
0.0
  0
LINE
  5
34C
100
AcDbEntity
  8
1
  6
HIDDEN
 62
   132
100
AcDbLine
 10
323.93125
 20
-57.456667
 30
0.0
 11
361.43125
 21
-57.456667
 31
0.0
  0
LINE
  5
34D
100
AcDbEntity
  8
1
  6
HIDDEN
 62
   132
100
AcDbLine
 10
323.93125
 20
-59.706667
 30
0.0
 11
361.43125
 21
-59.706667
 31
0.0
  0
LINE
  5
34E
100
AcDbEntity
  8
1
  6
HIDDEN
 62
   132
100
AcDbLine
 10
323.93125
 20
-60.456667
 30
0.0
 11
361.43125
 21
-60.456667
 31
0.0
  0
LINE
  5
34F
100
AcDbEntity
  8
1
  6
HIDDEN
 62
   132
100
AcDbLine
 10
325.68125
 20
-50.956667
 30
0.0
 11
325.68125
 21
-58.206667
 31
0.0
  0
LINE
  5
350
100
AcDbEntity
  8
1
  6
HIDDEN
 62
   132
100
AcDbLine
 10
325.68125
 20
-58.206667
 30
0.0
 11
325.68125
 21
-58.956667
 31
0.0
  0
LINE
  5
351
100
AcDbEntity
  8
1
  6
HIDDEN
 62
   132
100
AcDbLine
 10
325.68125
 20
-58.956667
 30
0.0
 11
325.68125
 21
-98.456667
 31
0.0
  0
LINE
  5
352
100
AcDbEntity
  8
1
  6
HIDDEN
 62
   132
100
AcDbLine
 10
328.18125
 20
-58.956667
 30
0.0
 11
328.18125
 21
-98.456667
 31
0.0
  0
LINE
  5
353
100
AcDbEntity
  8
1
  6
HIDDEN
 62
   132
100
AcDbLine
 10
328.18125
 20
-50.956667
 30
0.0
 11
328.18125
 21
-58.206667
 31
0.0
  0
LINE
  5
354
100
AcDbEntity
  8
1
  6
HIDDEN
 62
   132
100
AcDbLine
 10
328.18125
 20
-58.206667
 30
0.0
 11
328.18125
 21
-58.956667
 31
0.0
  0
LINE
  5
355
100
AcDbEntity
  8
1
  6
HIDDEN
 62
   132
100
AcDbLine
 10
323.93125
 20
-58.206667
 30
0.0
 11
325.68125
 21
-58.206667
 31
0.0
  0
LINE
  5
356
100
AcDbEntity
  8
1
  6
HIDDEN
 62
   132
100
AcDbLine
 10
323.93125
 20
-58.956667
 30
0.0
 11
325.68125
 21
-58.956667
 31
0.0
  0
LINE
  5
357
100
AcDbEntity
  8
1
  6
HIDDEN
 62
   132
100
AcDbLine
 10
325.68125
 20
-58.206667
 30
0.0
 11
328.18125
 21
-58.206667
 31
0.0
  0
LINE
  5
358
100
AcDbEntity
  8
1
  6
HIDDEN
 62
   132
100
AcDbLine
 10
328.18125
 20
-58.206667
 30
0.0
 11
361.43125
 21
-58.206667
 31
0.0
  0
LINE
  5
359
100
AcDbEntity
  8
1
  6
HIDDEN
 62
   132
100
AcDbLine
 10
325.68125
 20
-58.956667
 30
0.0
 11
328.18125
 21
-58.956667
 31
0.0
  0
LINE
  5
35A
100
AcDbEntity
  8
1
  6
HIDDEN
 62
   132
100
AcDbLine
 10
328.18125
 20
-58.956667
 30
0.0
 11
361.43125
 21
-58.956667
 31
0.0
  0
CIRCLE
  5
35B
100
AcDbEntity
  8
1
  6
CONTINUOUS
 62
   132
100
AcDbCircle
 10
326.93125
 20
-58.581667
 30
0.0
 40
1.0
210
0.0
220
0.0
230
1.0
  0
LINE
  5
35C
100
AcDbEntity
  8
1
  6
CONTINUOUS
 62
     7
100
AcDbLine
 10
326.93125
 20
-58.081667
 30
0.0
 11
326.93125
 21
-59.081667
 31
0.0
  0
LINE
  5
35D
100
AcDbEntity
  8
1
  6
CONTINUOUS
 62
     7
100
AcDbLine
 10
326.43125
 20
-58.581667
 30
0.0
 11
327.43125
 21
-58.581667
 31
0.0
  0
LINE
  5
35E
100
AcDbEntity
  8
1
  6
CONTINUOUS
 62
     7
100
AcDbLine
 10
326.93125
 20
-60.581667
 30
0.0
 11
326.93125
 21
-61.581667
 31
0.0
  0
LINE
  5
35F
100
AcDbEntity
  8
1
  6
CONTINUOUS
 62
     7
100
AcDbLine
 10
328.93125
 20
-58.581667
 30
0.0
 11
329.93125
 21
-58.581667
 31
0.0
  0
LINE
  5
360
100
AcDbEntity
  8
1
  6
CONTINUOUS
 62
     7
100
AcDbLine
 10
326.93125
 20
-56.581667
 30
0.0
 11
326.93125
 21
-55.581667
 31
0.0
  0
LINE
  5
361
100
AcDbEntity
  8
1
  6
CONTINUOUS
 62
     7
100
AcDbLine
 10
324.93125
 20
-58.581667
 30
0.0
 11
323.93125
 21
-58.581667
 31
0.0
  0
LINE
  5
362
100
AcDbEntity
  8
1
  6
CONTINUOUS
 62
     7
100
AcDbLine
 10
323.68125
 20
-58.581667
 30
0.0
 11
322.68125
 21
-58.581667
 31
0.0
  0
LINE
  5
363
100
AcDbEntity
  8
1
  6
CONTINUOUS
 62
     7
100
AcDbLine
 10
353.18125
 20
-55.456667
 30
0.0
 11
351.18125
 21
-55.456667
 31
0.0
  0
CIRCLE
  5
364
100
AcDbEntity
  8
1
  6
CONTINUOUS
 62
   132
100
AcDbCircle
 10
355.18125
 20
-55.456667
 30
0.0
 40
1.0
210
0.0
220
0.0
230
1.0
  0
LINE
  5
365
100
AcDbEntity
  8
1
  6
CONTINUOUS
 62
     7
100
AcDbLine
 10
355.18125
 20
-54.956667
 30
0.0
 11
355.18125
 21
-55.956667
 31
0.0
  0
LINE
  5
366
100
AcDbEntity
  8
1
  6
CONTINUOUS
 62
     7
100
AcDbLine
 10
355.68125
 20
-55.456667
 30
0.0
 11
354.68125
 21
-55.456667
 31
0.0
  0
LINE
  5
367
100
AcDbEntity
  8
1
  6
CONTINUOUS
 62
     7
100
AcDbLine
 10
357.18125
 20
-55.456667
 30
0.0
 11
359.18125
 21
-55.456667
 31
0.0
  0
LINE
  5
368
100
AcDbEntity
  8
1
  6
CONTINUOUS
 62
     7
100
AcDbLine
 10
355.18125
 20
-57.456667
 30
0.0
 11
355.18125
 21
-58.456667
 31
0.0
  0
LINE
  5
369
100
AcDbEntity
  8
1
  6
CONTINUOUS
 62
     7
100
AcDbLine
 10
355.18125
 20
-53.456667
 30
0.0
 11
355.18125
 21
-52.456667
 31
0.0
  0
CIRCLE
  5
36A
100
AcDbEntity
  8
1
  6
CONTINUOUS
 62
   132
100
AcDbCircle
 10
358.43125
 20
-58.581667
 30
0.0
 40
1.0
210
0.0
220
0.0
230
1.0
  0
LINE
  5
36B
100
AcDbEntity
  8
1
  6
CONTINUOUS
 62
     7
100
AcDbLine
 10
358.43125
 20
-58.081667
 30
0.0
 11
358.43125
 21
-59.081667
 31
0.0
  0
LINE
  5
36C
100
AcDbEntity
  8
1
  6
CONTINUOUS
 62
     7
100
AcDbLine
 10
358.93125
 20
-58.581667
 30
0.0
 11
357.93125
 21
-58.581667
 31
0.0
  0
LINE
  5
36D
100
AcDbEntity
  8
1
  6
CONTINUOUS
 62
     7
100
AcDbLine
 10
358.43125
 20
-60.581667
 30
0.0
 11
358.43125
 21
-61.581667
 31
0.0
  0
LINE
  5
36E
100
AcDbEntity
  8
1
  6
CONTINUOUS
 62
     7
100
AcDbLine
 10
356.43125
 20
-58.581667
 30
0.0
 11
355.43125
 21
-58.581667
 31
0.0
  0
LINE
  5
36F
100
AcDbEntity
  8
1
  6
CONTINUOUS
 62
     7
100
AcDbLine
 10
358.43125
 20
-56.581667
 30
0.0
 11
358.43125
 21
-55.581667
 31
0.0
  0
LINE
  5
370
100
AcDbEntity
  8
1
  6
CONTINUOUS
 62
     7
100
AcDbLine
 10
360.43125
 20
-58.581667
 30
0.0
 11
361.43125
 21
-58.581667
 31
0.0
  0
LINE
  5
371
100
AcDbEntity
  8
1
  6
CONTINUOUS
 62
     7
100
AcDbLine
 10
361.68125
 20
-58.581667
 30
0.0
 11
362.68125
 21
-58.581667
 31
0.0
  0
LINE
  5
372
100
AcDbEntity
  8
1
  6
HIDDEN
 62
   132
100
AcDbLine
 10
323.93125
 20
-84.456667
 30
0.0
 11
361.43125
 21
-84.456667
 31
0.0
  0
CIRCLE
  5
373
100
AcDbEntity
  8
1
  6
CONTINUOUS
 62
   132
100
AcDbCircle
 10
330.18125
 20
-86.956667
 30
0.0
 40
1.0
210
0.0
220
0.0
230
1.0
  0
LINE
  5
374
100
AcDbEntity
  8
1
  6
CONTINUOUS
 62
     7
100
AcDbLine
 10
330.18125
 20
-86.456667
 30
0.0
 11
330.18125
 21
-87.456667
 31
0.0
  0
LINE
  5
375
100
AcDbEntity
  8
1
  6
CONTINUOUS
 62
     7
100
AcDbLine
 10
329.68125
 20
-86.956667
 30
0.0
 11
330.68125
 21
-86.956667
 31
0.0
  0
LINE
  5
376
100
AcDbEntity
  8
1
  6
CONTINUOUS
 62
     7
100
AcDbLine
 10
328.18125
 20
-86.956667
 30
0.0
 11
326.18125
 21
-86.956667
 31
0.0
  0
LINE
  5
377
100
AcDbEntity
  8
1
  6
CONTINUOUS
 62
     7
100
AcDbLine
 10
330.18125
 20
-88.956667
 30
0.0
 11
330.18125
 21
-89.956667
 31
0.0
  0
LINE
  5
378
100
AcDbEntity
  8
1
  6
CONTINUOUS
 62
     7
100
AcDbLine
 10
332.18125
 20
-86.956667
 30
0.0
 11
334.18125
 21
-86.956667
 31
0.0
  0
LINE
  5
379
100
AcDbEntity
  8
1
  6
CONTINUOUS
 62
     7
100
AcDbLine
 10
330.18125
 20
-84.956667
 30
0.0
 11
330.18125
 21
-83.956667
 31
0.0
  0
LINE
  5
37A
100
AcDbEntity
  8
1
  6
HIDDEN
 62
   132
100
AcDbLine
 10
323.93125
 20
-88.206667
 30
0.0
 11
361.43125
 21
-88.206667
 31
0.0
  0
LINE
  5
37B
100
AcDbEntity
  8
1
  6
HIDDEN
 62
   132
100
AcDbLine
 10
323.93125
 20
-84.456667
 30
0.0
 11
323.93125
 21
-91.956667
 31
0.0
  0
LINE
  5
37C
100
AcDbEntity
  8
1
  6
HIDDEN
 62
   132
100
AcDbLine
 10
361.43125
 20
-84.456667
 30
0.0
 11
361.43125
 21
-91.956667
 31
0.0
  0
LINE
  5
37D
100
AcDbEntity
  8
1
  6
HIDDEN
 62
   132
100
AcDbLine
 10
323.93125
 20
-88.956667
 30
0.0
 11
361.43125
 21
-88.956667
 31
0.0
  0
LINE
  5
37E
100
AcDbEntity
  8
1
  6
HIDDEN
 62
   132
100
AcDbLine
 10
323.93125
 20
-91.206667
 30
0.0
 11
361.43125
 21
-91.206667
 31
0.0
  0
LINE
  5
37F
100
AcDbEntity
  8
1
  6
HIDDEN
 62
   132
100
AcDbLine
 10
323.93125
 20
-91.956667
 30
0.0
 11
361.43125
 21
-91.956667
 31
0.0
  0
LINE
  5
380
100
AcDbEntity
  8
1
  6
HIDDEN
 62
   132
100
AcDbLine
 10
323.93125
 20
-89.706667
 30
0.0
 11
325.68125
 21
-89.706667
 31
0.0
  0
LINE
  5
381
100
AcDbEntity
  8
1
  6
HIDDEN
 62
   132
100
AcDbLine
 10
323.93125
 20
-90.456667
 30
0.0
 11
325.68125
 21
-90.456667
 31
0.0
  0
LINE
  5
382
100
AcDbEntity
  8
1
  6
HIDDEN
 62
   132
100
AcDbLine
 10
325.68125
 20
-89.706667
 30
0.0
 11
328.18125
 21
-89.706667
 31
0.0
  0
LINE
  5
383
100
AcDbEntity
  8
1
  6
HIDDEN
 62
   132
100
AcDbLine
 10
328.18125
 20
-89.706667
 30
0.0
 11
361.43125
 21
-89.706667
 31
0.0
  0
LINE
  5
384
100
AcDbEntity
  8
1
  6
HIDDEN
 62
   132
100
AcDbLine
 10
325.68125
 20
-90.456667
 30
0.0
 11
328.18125
 21
-90.456667
 31
0.0
  0
LINE
  5
385
100
AcDbEntity
  8
1
  6
HIDDEN
 62
   132
100
AcDbLine
 10
328.18125
 20
-90.456667
 30
0.0
 11
361.43125
 21
-90.456667
 31
0.0
  0
CIRCLE
  5
386
100
AcDbEntity
  8
1
  6
CONTINUOUS
 62
   132
100
AcDbCircle
 10
326.93125
 20
-90.081667
 30
0.0
 40
1.0
210
0.0
220
0.0
230
1.0
  0
LINE
  5
387
100
AcDbEntity
  8
1
  6
CONTINUOUS
 62
     7
100
AcDbLine
 10
326.93125
 20
-89.581667
 30
0.0
 11
326.93125
 21
-90.581667
 31
0.0
  0
LINE
  5
388
100
AcDbEntity
  8
1
  6
CONTINUOUS
 62
     7
100
AcDbLine
 10
326.43125
 20
-90.081667
 30
0.0
 11
327.43125
 21
-90.081667
 31
0.0
  0
LINE
  5
389
100
AcDbEntity
  8
1
  6
CONTINUOUS
 62
     7
100
AcDbLine
 10
326.93125
 20
-92.081667
 30
0.0
 11
326.93125
 21
-93.081667
 31
0.0
  0
LINE
  5
38A
100
AcDbEntity
  8
1
  6
CONTINUOUS
 62
     7
100
AcDbLine
 10
328.93125
 20
-90.081667
 30
0.0
 11
329.93125
 21
-90.081667
 31
0.0
  0
LINE
  5
38B
100
AcDbEntity
  8
1
  6
CONTINUOUS
 62
     7
100
AcDbLine
 10
326.93125
 20
-88.081667
 30
0.0
 11
326.93125
 21
-87.081667
 31
0.0
  0
LINE
  5
38C
100
AcDbEntity
  8
1
  6
CONTINUOUS
 62
     7
100
AcDbLine
 10
324.93125
 20
-90.081667
 30
0.0
 11
323.93125
 21
-90.081667
 31
0.0
  0
LINE
  5
38D
100
AcDbEntity
  8
1
  6
CONTINUOUS
 62
     7
100
AcDbLine
 10
323.68125
 20
-90.081667
 30
0.0
 11
322.68125
 21
-90.081667
 31
0.0
  0
LINE
  5
38E
100
AcDbEntity
  8
1
  6
CONTINUOUS
 62
     7
100
AcDbLine
 10
353.18125
 20
-86.956667
 30
0.0
 11
351.18125
 21
-86.956667
 31
0.0
  0
CIRCLE
  5
38F
100
AcDbEntity
  8
1
  6
CONTINUOUS
 62
   132
100
AcDbCircle
 10
355.18125
 20
-86.956667
 30
0.0
 40
1.0
210
0.0
220
0.0
230
1.0
  0
LINE
  5
390
100
AcDbEntity
  8
1
  6
CONTINUOUS
 62
     7
100
AcDbLine
 10
355.18125
 20
-86.456667
 30
0.0
 11
355.18125
 21
-87.456667
 31
0.0
  0
LINE
  5
391
100
AcDbEntity
  8
1
  6
CONTINUOUS
 62
     7
100
AcDbLine
 10
355.68125
 20
-86.956667
 30
0.0
 11
354.68125
 21
-86.956667
 31
0.0
  0
LINE
  5
392
100
AcDbEntity
  8
1
  6
CONTINUOUS
 62
     7
100
AcDbLine
 10
357.18125
 20
-86.956667
 30
0.0
 11
359.18125
 21
-86.956667
 31
0.0
  0
LINE
  5
393
100
AcDbEntity
  8
1
  6
CONTINUOUS
 62
     7
100
AcDbLine
 10
355.18125
 20
-88.956667
 30
0.0
 11
355.18125
 21
-89.956667
 31
0.0
  0
LINE
  5
394
100
AcDbEntity
  8
1
  6
CONTINUOUS
 62
     7
100
AcDbLine
 10
355.18125
 20
-84.956667
 30
0.0
 11
355.18125
 21
-83.956667
 31
0.0
  0
CIRCLE
  5
395
100
AcDbEntity
  8
1
  6
CONTINUOUS
 62
   132
100
AcDbCircle
 10
358.43125
 20
-90.081667
 30
0.0
 40
1.0
210
0.0
220
0.0
230
1.0
  0
LINE
  5
396
100
AcDbEntity
  8
1
  6
CONTINUOUS
 62
     7
100
AcDbLine
 10
358.43125
 20
-89.581667
 30
0.0
 11
358.43125
 21
-90.581667
 31
0.0
  0
LINE
  5
397
100
AcDbEntity
  8
1
  6
CONTINUOUS
 62
     7
100
AcDbLine
 10
358.93125
 20
-90.081667
 30
0.0
 11
357.93125
 21
-90.081667
 31
0.0
  0
LINE
  5
398
100
AcDbEntity
  8
1
  6
CONTINUOUS
 62
     7
100
AcDbLine
 10
358.43125
 20
-92.081667
 30
0.0
 11
358.43125
 21
-93.081667
 31
0.0
  0
LINE
  5
399
100
AcDbEntity
  8
1
  6
CONTINUOUS
 62
     7
100
AcDbLine
 10
356.43125
 20
-90.081667
 30
0.0
 11
355.43125
 21
-90.081667
 31
0.0
  0
LINE
  5
39A
100
AcDbEntity
  8
1
  6
CONTINUOUS
 62
     7
100
AcDbLine
 10
358.43125
 20
-88.081667
 30
0.0
 11
358.43125
 21
-87.081667
 31
0.0
  0
LINE
  5
39B
100
AcDbEntity
  8
1
  6
CONTINUOUS
 62
     7
100
AcDbLine
 10
360.43125
 20
-90.081667
 30
0.0
 11
361.43125
 21
-90.081667
 31
0.0
  0
LINE
  5
39C
100
AcDbEntity
  8
1
  6
CONTINUOUS
 62
     7
100
AcDbLine
 10
361.68125
 20
-90.081667
 30
0.0
 11
362.68125
 21
-90.081667
 31
0.0
  0
LINE
  5
39D
100
AcDbEntity
  8
1
  6
CONTINUOUS
 62
   132
100
AcDbLine
 10
403.43125
 20
-57.956667
 30
0.0
 11
403.43125
 21
-59.206667
 31
0.0
  0
LINE
  5
39E
100
AcDbEntity
  8
1
  6
CONTINUOUS
 62
   132
100
AcDbLine
 10
402.68125
 20
-57.956667
 30
0.0
 11
403.43125
 21
-57.956667
 31
0.0
  0
LINE
  5
39F
100
AcDbEntity
  8
1
  6
CONTINUOUS
 62
   132
100
AcDbLine
 10
402.68125
 20
-59.206667
 30
0.0
 11
403.43125
 21
-59.206667
 31
0.0
  0
LINE
  5
3A0
100
AcDbEntity
  8
1
  6
CONTINUOUS
 62
   132
100
AcDbLine
 10
391.18125
 20
-53.456667
 30
0.0
 11
391.18125
 21
-57.706667
 31
0.0
  0
LINE
  5
3A1
100
AcDbEntity
  8
1
  6
CONTINUOUS
 62
   132
100
AcDbLine
 10
390.18125
 20
-54.456667
 30
0.0
 11
391.18125
 21
-54.456667
 31
0.0
  0
LINE
  5
3A2
100
AcDbEntity
  8
1
  6
CONTINUOUS
 62
   132
100
AcDbLine
 10
390.18125
 20
-56.456667
 30
0.0
 11
391.18125
 21
-56.456667
 31
0.0
  0
LINE
  5
3A3
100
AcDbEntity
  8
1
  6
CONTINUOUS
 62
   132
100
AcDbLine
 10
392.18125
 20
-53.456667
 30
0.0
 11
392.18125
 21
-56.706667
 31
0.0
  0
LINE
  5
3A4
100
AcDbEntity
  8
1
  6
CONTINUOUS
 62
   132
100
AcDbLine
 10
391.18125
 20
-53.456667
 30
0.0
 11
392.18125
 21
-53.456667
 31
0.0
  0
LINE
  5
3A5
100
AcDbEntity
  8
1
  6
CONTINUOUS
 62
   132
100
AcDbLine
 10
392.18125
 20
-56.706667
 30
0.0
 11
397.18125
 21
-56.706667
 31
0.0
  0
LINE
  5
3A6
100
AcDbEntity
  8
1
  6
CONTINUOUS
 62
   132
100
AcDbLine
 10
394.18125
 20
-60.456667
 30
0.0
 11
397.18125
 21
-60.456667
 31
0.0
  0
LINE
  5
3A7
100
AcDbEntity
  8
1
  6
CONTINUOUS
 62
   132
100
AcDbLine
 10
391.18125
 20
-57.706667
 30
0.0
 11
394.18125
 21
-57.706667
 31
0.0
  0
LINE
  5
3A8
100
AcDbEntity
  8
1
  6
CONTINUOUS
 62
   132
100
AcDbLine
 10
394.18125
 20
-60.456667
 30
0.0
 11
394.18125
 21
-57.706667
 31
0.0
  0
LINE
  5
3A9
100
AcDbEntity
  8
1
  6
CONTINUOUS
 62
   132
100
AcDbLine
 10
395.18125
 20
-59.456667
 30
0.0
 11
395.18125
 21
-57.706667
 31
0.0
  0
LINE
  5
3AA
100
AcDbEntity
  8
1
  6
CONTINUOUS
 62
   132
100
AcDbLine
 10
396.18125
 20
-59.456667
 30
0.0
 11
396.18125
 21
-57.706667
 31
0.0
  0
LINE
  5
3AB
100
AcDbEntity
  8
1
  6
CONTINUOUS
 62
   132
100
AcDbLine
 10
395.18125
 20
-59.456667
 30
0.0
 11
396.18125
 21
-59.456667
 31
0.0
  0
LINE
  5
3AC
100
AcDbEntity
  8
1
  6
CONTINUOUS
 62
   132
100
AcDbLine
 10
395.18125
 20
-57.706667
 30
0.0
 11
396.18125
 21
-57.706667
 31
0.0
  0
LINE
  5
3AD
100
AcDbEntity
  8
1
  6
HIDDEN
 62
   132
100
AcDbLine
 10
396.18125
 20
-57.956667
 30
0.0
 11
397.18125
 21
-57.956667
 31
0.0
  0
LINE
  5
3AE
100
AcDbEntity
  8
1
  6
HIDDEN
 62
   132
100
AcDbLine
 10
398.18125
 20
-57.956667
 30
0.0
 11
401.68125
 21
-57.956667
 31
0.0
  0
LINE
  5
3AF
100
AcDbEntity
  8
1
  6
HIDDEN
 62
   132
100
AcDbLine
 10
396.18125
 20
-59.206667
 30
0.0
 11
397.18125
 21
-59.206667
 31
0.0
  0
LINE
  5
3B0
100
AcDbEntity
  8
1
  6
HIDDEN
 62
   132
100
AcDbLine
 10
398.18125
 20
-59.206667
 30
0.0
 11
401.68125
 21
-59.206667
 31
0.0
  0
LINE
  5
3B1
100
AcDbEntity
  8
1
  6
CONTINUOUS
 62
     7
100
AcDbLine
 10
391.18125
 20
-55.456667
 30
0.0
 11
390.18125
 21
-55.456667
 31
0.0
  0
LINE
  5
3B2
100
AcDbEntity
  8
1
  6
CONTINUOUS
 62
     7
100
AcDbLine
 10
389.18125
 20
-55.456667
 30
0.0
 11
386.18125
 21
-55.456667
 31
0.0
  0
LINE
  5
3B3
100
AcDbEntity
  8
1
  6
CONTINUOUS
 62
     7
100
AcDbLine
 10
399.43125
 20
-71.456667
 30
0.0
 11
400.43125
 21
-71.456667
 31
0.0
  0
LINE
  5
3B4
100
AcDbEntity
  8
1
  6
CONTINUOUS
 62
     7
100
AcDbLine
 10
400.93125
 20
-71.456667
 30
0.0
 11
403.68125
 21
-71.456667
 31
0.0
  0
LINE
  5
3B5
100
AcDbEntity
  8
1
  6
CONTINUOUS
 62
     7
100
AcDbLine
 10
389.18125
 20
-86.956667
 30
0.0
 11
386.18125
 21
-86.956667
 31
0.0
  0
LINE
  5
3B6
100
AcDbEntity
  8
1
  6
CONTINUOUS
 62
   132
100
AcDbLine
 10
401.68125
 20
-89.081667
 30
0.0
 11
402.68125
 21
-89.081667
 31
0.0
  0
LINE
  5
3B7
100
AcDbEntity
  8
1
  6
CONTINUOUS
 62
   132
100
AcDbLine
 10
401.68125
 20
-91.081667
 30
0.0
 11
402.68125
 21
-91.081667
 31
0.0
  0
LINE
  5
3B8
100
AcDbEntity
  8
1
  6
CONTINUOUS
 62
   132
100
AcDbLine
 10
402.68125
 20
-89.081667
 30
0.0
 11
402.68125
 21
-91.081667
 31
0.0
  0
LINE
  5
3B9
100
AcDbEntity
  8
1
  6
CONTINUOUS
 62
   132
100
AcDbLine
 10
388.18125
 20
-85.956667
 30
0.0
 11
388.18125
 21
-87.956667
 31
0.0
  0
LINE
  5
3BA
100
AcDbEntity
  8
1
  6
CONTINUOUS
 62
   132
100
AcDbLine
 10
389.18125
 20
-85.956667
 30
0.0
 11
388.18125
 21
-85.956667
 31
0.0
  0
LINE
  5
3BB
100
AcDbEntity
  8
1
  6
CONTINUOUS
 62
   132
100
AcDbLine
 10
389.18125
 20
-87.956667
 30
0.0
 11
388.18125
 21
-87.956667
 31
0.0
  0
LINE
  5
3BC
100
AcDbEntity
  8
1
  6
CONTINUOUS
 62
     7
100
AcDbLine
 10
405.18125
 20
-90.081667
 30
0.0
 11
403.93125
 21
-90.081667
 31
0.0
  0
LINE
  5
3BD
100
AcDbEntity
  8
1
  6
CONTINUOUS
 62
   132
100
AcDbLine
 10
403.43125
 20
-89.456667
 30
0.0
 11
403.43125
 21
-90.706667
 31
0.0
  0
LINE
  5
3BE
100
AcDbEntity
  8
1
  6
CONTINUOUS
 62
   132
100
AcDbLine
 10
402.68125
 20
-89.456667
 30
0.0
 11
403.43125
 21
-89.456667
 31
0.0
  0
LINE
  5
3BF
100
AcDbEntity
  8
1
  6
CONTINUOUS
 62
   132
100
AcDbLine
 10
402.68125
 20
-90.706667
 30
0.0
 11
403.43125
 21
-90.706667
 31
0.0
  0
LINE
  5
3C0
100
AcDbEntity
  8
1
  6
CONTINUOUS
 62
   132
100
AcDbLine
 10
391.18125
 20
-84.956667
 30
0.0
 11
391.18125
 21
-89.206667
 31
0.0
  0
LINE
  5
3C1
100
AcDbEntity
  8
1
  6
CONTINUOUS
 62
   132
100
AcDbLine
 10
390.18125
 20
-85.956667
 30
0.0
 11
391.18125
 21
-85.956667
 31
0.0
  0
LINE
  5
3C2
100
AcDbEntity
  8
1
  6
CONTINUOUS
 62
   132
100
AcDbLine
 10
390.18125
 20
-87.956667
 30
0.0
 11
391.18125
 21
-87.956667
 31
0.0
  0
LINE
  5
3C3
100
AcDbEntity
  8
1
  6
CONTINUOUS
 62
   132
100
AcDbLine
 10
392.18125
 20
-84.956667
 30
0.0
 11
392.18125
 21
-88.206667
 31
0.0
  0
LINE
  5
3C4
100
AcDbEntity
  8
1
  6
CONTINUOUS
 62
   132
100
AcDbLine
 10
391.18125
 20
-84.956667
 30
0.0
 11
392.18125
 21
-84.956667
 31
0.0
  0
LINE
  5
3C5
100
AcDbEntity
  8
1
  6
CONTINUOUS
 62
   132
100
AcDbLine
 10
392.18125
 20
-88.206667
 30
0.0
 11
397.18125
 21
-88.206667
 31
0.0
  0
LINE
  5
3C6
100
AcDbEntity
  8
1
  6
CONTINUOUS
 62
   132
100
AcDbLine
 10
394.18125
 20
-91.956667
 30
0.0
 11
397.18125
 21
-91.956667
 31
0.0
  0
LINE
  5
3C7
100
AcDbEntity
  8
1
  6
CONTINUOUS
 62
   132
100
AcDbLine
 10
391.18125
 20
-89.206667
 30
0.0
 11
394.18125
 21
-89.206667
 31
0.0
  0
LINE
  5
3C8
100
AcDbEntity
  8
1
  6
CONTINUOUS
 62
   132
100
AcDbLine
 10
394.18125
 20
-91.956667
 30
0.0
 11
394.18125
 21
-89.206667
 31
0.0
  0
LINE
  5
3C9
100
AcDbEntity
  8
1
  6
CONTINUOUS
 62
   132
100
AcDbLine
 10
395.18125
 20
-90.956667
 30
0.0
 11
395.18125
 21
-89.206667
 31
0.0
  0
LINE
  5
3CA
100
AcDbEntity
  8
1
  6
CONTINUOUS
 62
   132
100
AcDbLine
 10
396.18125
 20
-90.956667
 30
0.0
 11
396.18125
 21
-89.206667
 31
0.0
  0
LINE
  5
3CB
100
AcDbEntity
  8
1
  6
CONTINUOUS
 62
   132
100
AcDbLine
 10
395.18125
 20
-90.956667
 30
0.0
 11
396.18125
 21
-90.956667
 31
0.0
  0
LINE
  5
3CC
100
AcDbEntity
  8
1
  6
CONTINUOUS
 62
   132
100
AcDbLine
 10
395.18125
 20
-89.206667
 30
0.0
 11
396.18125
 21
-89.206667
 31
0.0
  0
LINE
  5
3CD
100
AcDbEntity
  8
1
  6
HIDDEN
 62
   132
100
AcDbLine
 10
396.18125
 20
-89.456667
 30
0.0
 11
397.18125
 21
-89.456667
 31
0.0
  0
LINE
  5
3CE
100
AcDbEntity
  8
1
  6
HIDDEN
 62
   132
100
AcDbLine
 10
398.18125
 20
-89.456667
 30
0.0
 11
401.68125
 21
-89.456667
 31
0.0
  0
LINE
  5
3CF
100
AcDbEntity
  8
1
  6
HIDDEN
 62
   132
100
AcDbLine
 10
396.18125
 20
-90.706667
 30
0.0
 11
397.18125
 21
-90.706667
 31
0.0
  0
LINE
  5
3D0
100
AcDbEntity
  8
1
  6
HIDDEN
 62
   132
100
AcDbLine
 10
398.18125
 20
-90.706667
 30
0.0
 11
401.68125
 21
-90.706667
 31
0.0
  0
LINE
  5
3D1
100
AcDbEntity
  8
1
  6
CONTINUOUS
 62
     7
100
AcDbLine
 10
391.18125
 20
-86.956667
 30
0.0
 11
390.18125
 21
-86.956667
 31
0.0
  0
TEXT
  5
3D2
100
AcDbEntity
  8
1
  6
CONTINUOUS
 62
     7
100
AcDbText
 10
378.766
 20
-57.027583
 30
0.0
 40
2.5
  1
2, 3
  7
MONOTXT
 72
     4
 11
382.102583
 21
-55.777583
 31
0.0
210
0.0
220
0.0
230
1.0
100
AcDbText
  0
TEXT
  5
3D3
100
AcDbEntity
  8
1
  6
CONTINUOUS
 62
     7
100
AcDbText
 10
379.036333
 20
-88.450417
 30
0.0
 40
2.5
  1
6, 7
  7
MONOTXT
 72
     4
 11
382.323667
 21
-87.200417
 31
0.0
210
0.0
220
0.0
230
1.0
100
AcDbText
  0
TEXT
  5
3D4
100
AcDbEntity
  8
1
  6
CONTINUOUS
 62
     7
100
AcDbText
 10
405.7275
 20
-59.605833
 30
0.0
 40
2.5
  1
1, 4
  7
MONOTXT
 72
     4
 11
408.591667
 21
-58.355833
 31
0.0
210
0.0
220
0.0
230
1.0
100
AcDbText
  0
TEXT
  5
3D5
100
AcDbEntity
  8
1
  6
CONTINUOUS
 62
     7
100
AcDbText
 10
406.329167
 20
-91.146083
 30
0.0
 40
2.5
  1
5, 8
  7
MONOTXT
 72
     4
 11
409.66575
 21
-89.896083
 31
0.0
210
0.0
220
0.0
230
1.0
100
AcDbText
  0
TEXT
  5
3D6
100
AcDbEntity
  8
1
  6
CONTINUOUS
 62
     7
100
AcDbText
 10
331.2495
 20
-52.082917
 30
0.0
 40
2.5
  1
2
  7
MONOTXT
 72
     4
 11
332.086083
 21
-50.832917
 31
0.0
210
0.0
220
0.0
230
1.0
100
AcDbText
  0
TEXT
  5
3D7
100
AcDbEntity
  8
1
  6
CONTINUOUS
 62
     7
100
AcDbText
 10
352.689667
 20
-52.335583
 30
0.0
 40
2.5
  1
3
  7
MONOTXT
 72
     4
 11
353.52625
 21
-51.085583
 31
0.0
210
0.0
220
0.0
230
1.0
100
AcDbText
  0
TEXT
  5
3D8
100
AcDbEntity
  8
1
  6
CONTINUOUS
 62
     7
100
AcDbText
 10
320.962417
 20
-59.872833
 30
0.0
 40
2.5
  1
1
  7
MONOTXT
 72
     4
 11
321.257667
 21
-58.622833
 31
0.0
210
0.0
220
0.0
230
1.0
100
AcDbText
  0
TEXT
  5
3D9
100
AcDbEntity
  8
1
  6
CONTINUOUS
 62
     7
100
AcDbText
 10
363.222167
 20
-60.067917
 30
0.0
 40
2.5
  1
4
  7
MONOTXT
 72
     4
 11
364.117833
 21
-58.817917
 31
0.0
210
0.0
220
0.0
230
1.0
100
AcDbText
  0
TEXT
  5
3DA
100
AcDbEntity
  8
1
  6
CONTINUOUS
 62
     7
100
AcDbText
 10
320.449583
 20
-91.505167
 30
0.0
 40
2.5
  1
5
  7
MONOTXT
 72
     4
 11
321.286167
 21
-90.255167
 31
0.0
210
0.0
220
0.0
230
1.0
100
AcDbText
  0
TEXT
  5
3DB
100
AcDbEntity
  8
1
  6
CONTINUOUS
 62
     7
100
AcDbText
 10
331.200083
 20
-83.732917
 30
0.0
 40
2.5
  1
6
  7
MONOTXT
 72
     4
 11
331.977583
 21
-82.482917
 31
0.0
210
0.0
220
0.0
230
1.0
100
AcDbText
  0
TEXT
  5
3DC
100
AcDbEntity
  8
1
  6
CONTINUOUS
 62
     7
100
AcDbText
 10
352.883667
 20
-83.834917
 30
0.0
 40
2.5
  1
7
  7
MONOTXT
 72
     4
 11
353.730083
 21
-82.584917
 31
0.0
210
0.0
220
0.0
230
1.0
100
AcDbText
  0
TEXT
  5
3DD
100
AcDbEntity
  8
1
  6
CONTINUOUS
 62
     7
100
AcDbText
 10
363.266833
 20
-91.560667
 30
0.0
 40
2.5
  1
8
  7
MONOTXT
 72
     4
 11
364.103417
 21
-90.310667
 31
0.0
210
0.0
220
0.0
230
1.0
100
AcDbText
  0
TEXT
  5
3DE
100
AcDbEntity
  8
1
  6
CONTINUOUS
 62
     7
100
AcDbText
 10
335.6455
 20
37.451833
 30
0.0
 40
2.5
  1
B
  7
MONOTXT
 72
     4
 11
336.482083
 21
38.701833
 31
0.0
210
0.0
220
0.0
230
1.0
100
AcDbText
  0
TEXT
  5
3DF
100
AcDbEntity
  8
1
  6
CONTINUOUS
 62
     7
100
AcDbText
 10
348.327083
 20
37.400333
 30
0.0
 40
2.5
  1
B
  7
MONOTXT
 72
     4
 11
349.163667
 21
38.650333
 31
0.0
210
0.0
220
0.0
230
1.0
100
AcDbText
  0
TEXT
  5
3E0
100
AcDbEntity
  8
1
  6
CONTINUOUS
 62
     7
100
AcDbText
 10
373.723333
 20
-10.543167
 30
0.0
 40
2.5
  1
A
  7
MONOTXT
 72
     4
 11
374.687833
 21
-9.293167
 31
0.0
210
0.0
220
0.0
230
1.0
100
AcDbText
  0
TEXT
  5
3E1
100
AcDbEntity
  8
1
  6
CONTINUOUS
 62
     7
100
AcDbText
 10
373.81325
 20
5.436167
 30
0.0
 40
2.5
  1
A
  7
MONOTXT
 72
     4
 11
374.77775
 21
6.686167
 31
0.0
210
0.0
220
0.0
230
1.0
100
AcDbText
  0
TEXT
  5
3E2
100
AcDbEntity
  8
1
  6
CONTINUOUS
 62
     7
100
AcDbText
 10
331.43925
 20
11.031083
 30
0.0
 40
2.5
  1
2
  7
MONOTXT
 72
     4
 11
332.275833
 21
12.281083
 31
0.0
210
0.0
220
0.0
230
1.0
100
AcDbText
  0
TEXT
  5
3E3
100
AcDbEntity
  8
1
  6
CONTINUOUS
 62
     7
100
AcDbText
 10
352.079667
 20
11.1135
 30
0.0
 40
2.5
  1
3
  7
MONOTXT
 72
     4
 11
352.91625
 21
12.3635
 31
0.0
210
0.0
220
0.0
230
1.0
100
AcDbText
  0
TEXT
  5
3E4
100
AcDbEntity
  8
1
  6
CONTINUOUS
 62
     7
100
AcDbText
 10
331.617917
 20
-16.153
 30
0.0
 40
2.5
  1
6
  7
MONOTXT
 72
     4
 11
332.395417
 21
-14.903
 31
0.0
210
0.0
220
0.0
230
1.0
100
AcDbText
  0
TEXT
  5
3E5
100
AcDbEntity
  8
1
  6
CONTINUOUS
 62
     7
100
AcDbText
 10
352.158
 20
-16.417
 30
0.0
 40
2.5
  1
7
  7
MONOTXT
 72
     4
 11
353.004417
 21
-15.167
 31
0.0
210
0.0
220
0.0
230
1.0
100
AcDbText
  0
TEXT
  5
3E6
100
AcDbEntity
  8
1
  6
CONTINUOUS
 62
     7
100
AcDbText
 10
331.589333
 20
-168.6615
 30
0.0
 40
4.5
  1
36" OR GREATER WIDTH
  7
TXT
 72
     4
 11
368.2705
 21
-166.4115
 31
0.0
210
0.0
220
0.0
230
1.0
100
AcDbText
  0
LINE
  5
3E7
100
AcDbEntity
  8
1
  6
CONTINUOUS
 62
   132
100
AcDbLine
 10
325.678667
 20
-117.456667
 30
0.0
 11
328.18375
 21
-117.456667
 31
0.0
  0
LINE
  5
3E8
100
AcDbEntity
  8
1
  6
CONTINUOUS
 62
   132
100
AcDbLine
 10
325.93125
 20
-123.956667
 30
0.0
 11
325.93125
 21
-122.956667
 31
0.0
  0
LINE
  5
3E9
100
AcDbEntity
  8
1
  6
CONTINUOUS
 62
   132
100
AcDbLine
 10
327.93125
 20
-123.956667
 30
0.0
 11
327.93125
 21
-122.956667
 31
0.0
  0
LINE
  5
3EA
100
AcDbEntity
  8
1
  6
CONTINUOUS
 62
   132
100
AcDbLine
 10
324.43125
 20
-121.206667
 30
0.0
 11
324.43125
 21
-121.956667
 31
0.0
  0
LINE
  5
3EB
100
AcDbEntity
  8
1
  6
CONTINUOUS
 62
   132
100
AcDbLine
 10
329.43125
 20
-121.206667
 30
0.0
 11
329.43125
 21
-121.956667
 31
0.0
  0
LINE
  5
3EC
100
AcDbEntity
  8
1
  6
CONTINUOUS
 62
   132
100
AcDbLine
 10
324.43125
 20
-121.206667
 30
0.0
 11
325.142917
 21
-121.206667
 31
0.0
  0
LINE
  5
3ED
100
AcDbEntity
  8
1
  6
CONTINUOUS
 62
   132
100
AcDbLine
 10
328.7195
 20
-121.206667
 30
0.0
 11
329.43125
 21
-121.206667
 31
0.0
  0
LINE
  5
3EE
100
AcDbEntity
  8
1
  6
CONTINUOUS
 62
   132
100
AcDbLine
 10
325.678667
 20
-117.456667
 30
0.0
 11
325.142917
 21
-121.206667
 31
0.0
  0
LINE
  5
3EF
100
AcDbEntity
  8
1
  6
CONTINUOUS
 62
   132
100
AcDbLine
 10
328.18375
 20
-117.456667
 30
0.0
 11
328.7195
 21
-121.206667
 31
0.0
  0
LINE
  5
3F0
100
AcDbEntity
  8
1
  6
CONTINUOUS
 62
   132
100
AcDbLine
 10
326.329083
 20
-118.206667
 30
0.0
 11
325.793333
 21
-121.956667
 31
0.0
  0
LINE
  5
3F1
100
AcDbEntity
  8
1
  6
CONTINUOUS
 62
   132
100
AcDbLine
 10
327.53325
 20
-118.206667
 30
0.0
 11
328.069
 21
-121.956667
 31
0.0
  0
LINE
  5
3F2
100
AcDbEntity
  8
1
  6
CONTINUOUS
 62
   132
100
AcDbLine
 10
326.329083
 20
-118.206667
 30
0.0
 11
327.53325
 21
-118.206667
 31
0.0
  0
LINE
  5
3F3
100
AcDbEntity
  8
1
  6
CONTINUOUS
 62
   132
100
AcDbLine
 10
327.93125
 20
-116.45275
 30
0.0
 11
325.93125
 21
-116.45275
 31
0.0
  0
LINE
  5
3F4
100
AcDbEntity
  8
1
  6
CONTINUOUS
 62
   132
100
AcDbLine
 10
325.93125
 20
-116.45275
 30
0.0
 11
325.93125
 21
-117.45275
 31
0.0
  0
LINE
  5
3F5
100
AcDbEntity
  8
1
  6
CONTINUOUS
 62
   132
100
AcDbLine
 10
327.93125
 20
-116.45275
 30
0.0
 11
327.93125
 21
-117.45275
 31
0.0
  0
LINE
  5
3F6
100
AcDbEntity
  8
1
  6
CONTINUOUS
 62
   132
100
AcDbLine
 10
326.55625
 20
-121.956667
 30
0.0
 11
326.55625
 21
-118.206667
 31
0.0
  0
LINE
  5
3F7
100
AcDbEntity
  8
1
  6
CONTINUOUS
 62
   132
100
AcDbLine
 10
327.30625
 20
-121.956667
 30
0.0
 11
327.30625
 21
-118.206667
 31
0.0
  0
LINE
  5
3F8
100
AcDbEntity
  8
1
  6
CONTINUOUS
 62
     7
100
AcDbLine
 10
326.93125
 20
-122.956667
 30
0.0
 11
326.93125
 21
-114.45275
 31
0.0
  0
LINE
  5
3F9
100
AcDbEntity
  8
1
  6
CONTINUOUS
 62
   132
100
AcDbLine
 10
357.178667
 20
-117.456667
 30
0.0
 11
359.68375
 21
-117.456667
 31
0.0
  0
LINE
  5
3FA
100
AcDbEntity
  8
1
  6
CONTINUOUS
 62
   132
100
AcDbLine
 10
357.43125
 20
-123.956667
 30
0.0
 11
357.43125
 21
-122.956667
 31
0.0
  0
LINE
  5
3FB
100
AcDbEntity
  8
1
  6
CONTINUOUS
 62
   132
100
AcDbLine
 10
359.43125
 20
-123.956667
 30
0.0
 11
359.43125
 21
-122.956667
 31
0.0
  0
LINE
  5
3FC
100
AcDbEntity
  8
1
  6
CONTINUOUS
 62
   132
100
AcDbLine
 10
355.93125
 20
-121.206667
 30
0.0
 11
355.93125
 21
-121.956667
 31
0.0
  0
LINE
  5
3FD
100
AcDbEntity
  8
1
  6
CONTINUOUS
 62
   132
100
AcDbLine
 10
360.93125
 20
-121.206667
 30
0.0
 11
360.93125
 21
-121.956667
 31
0.0
  0
LINE
  5
3FE
100
AcDbEntity
  8
1
  6
CONTINUOUS
 62
   132
100
AcDbLine
 10
355.93125
 20
-121.206667
 30
0.0
 11
356.642917
 21
-121.206667
 31
0.0
  0
LINE
  5
3FF
100
AcDbEntity
  8
1
  6
CONTINUOUS
 62
   132
100
AcDbLine
 10
360.2195
 20
-121.206667
 30
0.0
 11
360.93125
 21
-121.206667
 31
0.0
  0
LINE
  5
400
100
AcDbEntity
  8
1
  6
CONTINUOUS
 62
   132
100
AcDbLine
 10
357.178667
 20
-117.456667
 30
0.0
 11
356.642917
 21
-121.206667
 31
0.0
  0
LINE
  5
401
100
AcDbEntity
  8
1
  6
CONTINUOUS
 62
   132
100
AcDbLine
 10
359.68375
 20
-117.456667
 30
0.0
 11
360.2195
 21
-121.206667
 31
0.0
  0
LINE
  5
402
100
AcDbEntity
  8
1
  6
CONTINUOUS
 62
   132
100
AcDbLine
 10
357.829083
 20
-118.206667
 30
0.0
 11
357.293333
 21
-121.956667
 31
0.0
  0
LINE
  5
403
100
AcDbEntity
  8
1
  6
CONTINUOUS
 62
   132
100
AcDbLine
 10
359.03325
 20
-118.206667
 30
0.0
 11
359.569
 21
-121.956667
 31
0.0
  0
LINE
  5
404
100
AcDbEntity
  8
1
  6
CONTINUOUS
 62
   132
100
AcDbLine
 10
357.829083
 20
-118.206667
 30
0.0
 11
359.03325
 21
-118.206667
 31
0.0
  0
LINE
  5
405
100
AcDbEntity
  8
1
  6
CONTINUOUS
 62
   132
100
AcDbLine
 10
359.43125
 20
-116.45275
 30
0.0
 11
357.43125
 21
-116.45275
 31
0.0
  0
LINE
  5
406
100
AcDbEntity
  8
1
  6
CONTINUOUS
 62
   132
100
AcDbLine
 10
357.43125
 20
-116.45275
 30
0.0
 11
357.43125
 21
-117.45275
 31
0.0
  0
LINE
  5
407
100
AcDbEntity
  8
1
  6
CONTINUOUS
 62
   132
100
AcDbLine
 10
359.43125
 20
-116.45275
 30
0.0
 11
359.43125
 21
-117.45275
 31
0.0
  0
LINE
  5
408
100
AcDbEntity
  8
1
  6
CONTINUOUS
 62
   132
100
AcDbLine
 10
358.05625
 20
-121.956667
 30
0.0
 11
358.05625
 21
-118.206667
 31
0.0
  0
LINE
  5
409
100
AcDbEntity
  8
1
  6
CONTINUOUS
 62
   132
100
AcDbLine
 10
358.80625
 20
-121.956667
 30
0.0
 11
358.80625
 21
-118.206667
 31
0.0
  0
LINE
  5
40A
100
AcDbEntity
  8
1
  6
CONTINUOUS
 62
     7
100
AcDbLine
 10
358.43125
 20
-122.956667
 30
0.0
 11
358.43125
 21
-114.45275
 31
0.0
  0
LINE
  5
40B
100
AcDbEntity
  8
1
  6
CONTINUOUS
 62
   132
100
AcDbLine
 10
361.18125
 20
-127.206667
 30
0.0
 11
324.18125
 21
-127.206667
 31
0.0
  0
LINE
  5
40C
100
AcDbEntity
  8
1
  6
CONTINUOUS
 62
   132
100
AcDbLine
 10
361.18125
 20
-126.206667
 30
0.0
 11
324.18125
 21
-126.206667
 31
0.0
  0
LINE
  5
40D
100
AcDbEntity
  8
1
  6
HIDDEN
 62
   132
100
AcDbLine
 10
361.18125
 20
-124.956667
 30
0.0
 11
324.18125
 21
-124.956667
 31
0.0
  0
LINE
  5
40E
100
AcDbEntity
  8
1
  6
HIDDEN
 62
   132
100
AcDbLine
 10
361.18125
 20
-123.956667
 30
0.0
 11
324.18125
 21
-123.956667
 31
0.0
  0
LINE
  5
40F
100
AcDbEntity
  8
1
  6
HIDDEN
 62
   132
100
AcDbLine
 10
361.18125
 20
-122.956667
 30
0.0
 11
324.18125
 21
-122.956667
 31
0.0
  0
LINE
  5
410
100
AcDbEntity
  8
1
  6
CONTINUOUS
 62
   132
100
AcDbLine
 10
361.18125
 20
-121.956667
 30
0.0
 11
324.18125
 21
-121.956667
 31
0.0
  0
LINE
  5
411
100
AcDbEntity
  8
1
  6
CONTINUOUS
 62
   132
100
AcDbLine
 10
324.18125
 20
-121.956667
 30
0.0
 11
324.18125
 21
-128.456667
 31
0.0
  0
LINE
  5
412
100
AcDbEntity
  8
1
  6
CONTINUOUS
 62
   132
100
AcDbLine
 10
361.18125
 20
-121.956667
 30
0.0
 11
361.18125
 21
-128.456667
 31
0.0
  0
LINE
  5
413
100
AcDbEntity
  8
1
  6
CONTINUOUS
 62
   132
100
AcDbLine
 10
330.075417
 20
-130.456667
 30
0.0
 11
328.075417
 21
-130.456667
 31
0.0
  0
LINE
  5
414
100
AcDbEntity
  8
1
  6
CONTINUOUS
 62
   132
100
AcDbLine
 10
328.075417
 20
-130.456667
 30
0.0
 11
328.075417
 21
-129.456667
 31
0.0
  0
LINE
  5
415
100
AcDbEntity
  8
1
  6
CONTINUOUS
 62
   132
100
AcDbLine
 10
330.075417
 20
-130.456667
 30
0.0
 11
330.075417
 21
-129.456667
 31
0.0
  0
LINE
  5
416
100
AcDbEntity
  8
1
  6
CONTINUOUS
 62
   132
100
AcDbLine
 10
330.075417
 20
-125.206667
 30
0.0
 11
328.075417
 21
-125.206667
 31
0.0
  0
LINE
  5
417
100
AcDbEntity
  8
1
  6
CONTINUOUS
 62
   132
100
AcDbLine
 10
328.075417
 20
-125.206667
 30
0.0
 11
328.075417
 21
-126.206667
 31
0.0
  0
LINE
  5
418
100
AcDbEntity
  8
1
  6
CONTINUOUS
 62
   132
100
AcDbLine
 10
330.075417
 20
-125.206667
 30
0.0
 11
330.075417
 21
-126.206667
 31
0.0
  0
LINE
  5
419
100
AcDbEntity
  8
1
  6
CONTINUOUS
 62
   132
100
AcDbLine
 10
357.287083
 20
-125.206667
 30
0.0
 11
355.287083
 21
-125.206667
 31
0.0
  0
LINE
  5
41A
100
AcDbEntity
  8
1
  6
CONTINUOUS
 62
   132
100
AcDbLine
 10
355.287083
 20
-125.206667
 30
0.0
 11
355.287083
 21
-126.206667
 31
0.0
  0
LINE
  5
41B
100
AcDbEntity
  8
1
  6
CONTINUOUS
 62
   132
100
AcDbLine
 10
357.287083
 20
-125.206667
 30
0.0
 11
357.287083
 21
-126.206667
 31
0.0
  0
LINE
  5
41C
100
AcDbEntity
  8
1
  6
CONTINUOUS
 62
   132
100
AcDbLine
 10
328.075417
 20
-127.206667
 30
0.0
 11
328.075417
 21
-128.456667
 31
0.0
  0
LINE
  5
41D
100
AcDbEntity
  8
1
  6
CONTINUOUS
 62
   132
100
AcDbLine
 10
330.075417
 20
-127.206667
 30
0.0
 11
330.075417
 21
-128.456667
 31
0.0
  0
LINE
  5
41E
100
AcDbEntity
  8
1
  6
CONTINUOUS
 62
   132
100
AcDbLine
 10
355.287083
 20
-127.206667
 30
0.0
 11
355.287083
 21
-128.456667
 31
0.0
  0
LINE
  5
41F
100
AcDbEntity
  8
1
  6
CONTINUOUS
 62
   132
100
AcDbLine
 10
357.287083
 20
-127.206667
 30
0.0
 11
357.287083
 21
-128.456667
 31
0.0
  0
LINE
  5
420
100
AcDbEntity
  8
1
  6
CONTINUOUS
 62
     7
100
AcDbLine
 10
329.075417
 20
-126.956667
 30
0.0
 11
329.075417
 21
-120.206667
 31
0.0
  0
LINE
  5
421
100
AcDbEntity
  8
1
  6
CONTINUOUS
 62
     7
100
AcDbLine
 10
329.075417
 20
-132.456667
 30
0.0
 11
329.075417
 21
-128.706667
 31
0.0
  0
LINE
  5
422
100
AcDbEntity
  8
1
  6
CONTINUOUS
 62
     7
100
AcDbLine
 10
329.075417
 20
-128.206667
 30
0.0
 11
329.075417
 21
-127.456667
 31
0.0
  0
LINE
  5
423
100
AcDbEntity
  8
1
  6
CONTINUOUS
 62
     7
100
AcDbLine
 10
356.287083
 20
-126.956667
 30
0.0
 11
356.287083
 21
-120.206667
 31
0.0
  0
LINE
  5
424
100
AcDbEntity
  8
1
  6
CONTINUOUS
 62
     7
100
AcDbLine
 10
356.287083
 20
-132.456667
 30
0.0
 11
356.287083
 21
-128.706667
 31
0.0
  0
LINE
  5
425
100
AcDbEntity
  8
1
  6
CONTINUOUS
 62
     7
100
AcDbLine
 10
356.287083
 20
-128.206667
 30
0.0
 11
356.287083
 21
-127.456667
 31
0.0
  0
LINE
  5
426
100
AcDbEntity
  8
1
  6
CONTINUOUS
 62
     7
100
AcDbLine
 10
362.18125
 20
-130.456667
 30
0.0
 11
362.18125
 21
-145.456667
 31
0.0
  0
LINE
  5
427
100
AcDbEntity
  8
1
  6
CONTINUOUS
 62
     7
100
AcDbLine
 10
324.18125
 20
-130.456667
 30
0.0
 11
324.18125
 21
-138.605833
 31
0.0
  0
LINE
  5
428
100
AcDbEntity
  8
1
  6
CONTINUOUS
 62
     7
100
AcDbLine
 10
326.93125
 20
-131.456667
 30
0.0
 11
326.93125
 21
-145.456667
 31
0.0
  0
LINE
  5
429
100
AcDbEntity
  8
1
  6
CONTINUOUS
 62
     7
100
AcDbLine
 10
329.075417
 20
-138.605833
 30
0.0
 11
329.075417
 21
-145.456667
 31
0.0
  0
LINE
  5
42A
100
AcDbEntity
  8
1
  6
CONTINUOUS
 62
     7
100
AcDbLine
 10
356.287083
 20
-138.605833
 30
0.0
 11
356.287083
 21
-145.456667
 31
0.0
  0
LINE
  5
42B
100
AcDbEntity
  8
1
  6
CONTINUOUS
 62
     7
100
AcDbLine
 10
358.43125
 20
-131.456667
 30
0.0
 11
358.43125
 21
-145.456667
 31
0.0
  0
LINE
  5
42C
100
AcDbEntity
  8
1
  6
CONTINUOUS
 62
     7
100
AcDbLine
 10
326.93125
 20
-128.456667
 30
0.0
 11
326.93125
 21
-130.516083
 31
0.0
  0
LINE
  5
42D
100
AcDbEntity
  8
1
  6
CONTINUOUS
 62
     7
100
AcDbLine
 10
358.43125
 20
-128.456667
 30
0.0
 11
358.43125
 21
-130.516083
 31
0.0
  0
LINE
  5
42E
100
AcDbEntity
  8
1
  6
CONTINUOUS
 62
     7
100
AcDbLine
 10
329.075417
 20
-144.456667
 30
0.0
 11
334.075417
 21
-144.456667
 31
0.0
  0
LINE
  5
42F
100
AcDbEntity
  8
1
  6
CONTINUOUS
 62
     7
100
AcDbLine
 10
318.18125
 20
-144.456667
 30
0.0
 11
323.18125
 21
-144.456667
 31
0.0
  0
LINE
  5
430
100
AcDbEntity
  8
1
  6
CONTINUOUS
 62
     7
100
AcDbLine
 10
319.18125
 20
-137.605833
 30
0.0
 11
324.18125
 21
-137.605833
 31
0.0
  0
LINE
  5
431
100
AcDbEntity
  8
1
  6
CONTINUOUS
 62
     7
100
AcDbLine
 10
351.287083
 20
-144.456667
 30
0.0
 11
356.287083
 21
-144.456667
 31
0.0
  0
LINE
  5
432
100
AcDbEntity
  8
1
  6
CONTINUOUS
 62
     7
100
AcDbLine
 10
362.18125
 20
-144.456667
 30
0.0
 11
367.18125
 21
-144.456667
 31
0.0
  0
LINE
  5
433
100
AcDbEntity
  8
1
  6
CONTINUOUS
 62
     7
100
AcDbLine
 10
326.93125
 20
-137.605833
 30
0.0
 11
331.93125
 21
-137.605833
 31
0.0
  0
LINE
  5
434
100
AcDbEntity
  8
1
  6
CONTINUOUS
 62
     7
100
AcDbLine
 10
328.003333
 20
-144.456667
 30
0.0
 11
328.003333
 21
-150.456667
 31
0.0
  0
LINE
  5
435
100
AcDbEntity
  8
1
  6
CONTINUOUS
 62
     7
100
AcDbLine
 10
357.359167
 20
-144.456667
 30
0.0
 11
357.359167
 21
-150.456667
 31
0.0
  0
LINE
  5
436
100
AcDbEntity
  8
1
  6
CONTINUOUS
 62
     7
100
AcDbLine
 10
357.359167
 20
-150.456667
 30
0.0
 11
359.359167
 21
-150.456667
 31
0.0
  0
LINE
  5
437
100
AcDbEntity
  8
1
  6
CONTINUOUS
 62
     7
100
AcDbLine
 10
326.003333
 20
-150.456667
 30
0.0
 11
328.003333
 21
-150.456667
 31
0.0
  0
INSERT
  5
438
100
AcDbEntity
  8
1
  6
CONTINUOUS
 62
     1
100
AcDbBlockReference
  2
LDR
 10
324.18125
 20
-137.605833
 30
0.0
 41
240.0
 42
240.0
210
0.0
220
0.0
230
1.0
  0
INSERT
  5
439
100
AcDbEntity
  8
1
  6
CONTINUOUS
 62
     1
100
AcDbBlockReference
  2
LDR
 10
324.18125
 20
-137.605833
 30
0.0
 41
240.0
 42
240.0
210
0.0
220
0.0
230
1.0
  0
INSERT
  5
43A
100
AcDbEntity
  8
1
  6
CONTINUOUS
 62
     1
100
AcDbBlockReference
  2
LDR
 10
326.93125
 20
-137.605833
 30
0.0
 41
240.0
 42
240.0
 50
180.0
210
0.0
220
0.0
230
1.0
  0
INSERT
  5
43B
100
AcDbEntity
  8
1
  6
CONTINUOUS
 62
     1
100
AcDbBlockReference
  2
LDR
 10
326.93125
 20
-137.605833
 30
0.0
 41
240.0
 42
240.0
 50
180.0
210
0.0
220
0.0
230
1.0
  0
INSERT
  5
43C
100
AcDbEntity
  8
1
  6
CONTINUOUS
 62
     1
100
AcDbBlockReference
  2
LDR
 10
323.18125
 20
-144.456667
 30
0.0
 41
240.0
 42
240.0
210
0.0
220
0.0
230
1.0
  0
INSERT
  5
43D
100
AcDbEntity
  8
1
  6
CONTINUOUS
 62
     1
100
AcDbBlockReference
  2
LDR
 10
323.18125
 20
-144.456667
 30
0.0
 41
240.0
 42
240.0
210
0.0
220
0.0
230
1.0
  0
INSERT
  5
43E
100
AcDbEntity
  8
1
  6
CONTINUOUS
 62
     1
100
AcDbBlockReference
  2
LDR
 10
328.003333
 20
-144.456667
 30
0.0
 41
240.0
 42
240.0
 50
90.0
210
0.0
220
0.0
230
1.0
  0
INSERT
  5
43F
100
AcDbEntity
  8
1
  6
CONTINUOUS
 62
     1
100
AcDbBlockReference
  2
LDR
 10
328.003333
 20
-144.456667
 30
0.0
 41
240.0
 42
240.0
 50
90.0
210
0.0
220
0.0
230
1.0
  0
INSERT
  5
440
100
AcDbEntity
  8
1
  6
CONTINUOUS
 62
     1
100
AcDbBlockReference
  2
LDR
 10
329.075417
 20
-144.456667
 30
0.0
 41
240.0
 42
240.0
 50
180.0
210
0.0
220
0.0
230
1.0
  0
INSERT
  5
441
100
AcDbEntity
  8
1
  6
CONTINUOUS
 62
     1
100
AcDbBlockReference
  2
LDR
 10
329.075417
 20
-144.456667
 30
0.0
 41
240.0
 42
240.0
 50
180.0
210
0.0
220
0.0
230
1.0
  0
INSERT
  5
442
100
AcDbEntity
  8
1
  6
CONTINUOUS
 62
     1
100
AcDbBlockReference
  2
LDR
 10
356.287083
 20
-144.456667
 30
0.0
 41
240.0
 42
240.0
210
0.0
220
0.0
230
1.0
  0
INSERT
  5
443
100
AcDbEntity
  8
1
  6
CONTINUOUS
 62
     1
100
AcDbBlockReference
  2
LDR
 10
356.287083
 20
-144.456667
 30
0.0
 41
240.0
 42
240.0
210
0.0
220
0.0
230
1.0
  0
INSERT
  5
444
100
AcDbEntity
  8
1
  6
CONTINUOUS
 62
     1
100
AcDbBlockReference
  2
LDR
 10
357.359167
 20
-144.456667
 30
0.0
 41
240.0
 42
240.0
 50
90.0
210
0.0
220
0.0
230
1.0
  0
INSERT
  5
445
100
AcDbEntity
  8
1
  6
CONTINUOUS
 62
     1
100
AcDbBlockReference
  2
LDR
 10
357.359167
 20
-144.456667
 30
0.0
 41
240.0
 42
240.0
 50
90.0
210
0.0
220
0.0
230
1.0
  0
INSERT
  5
446
100
AcDbEntity
  8
1
  6
CONTINUOUS
 62
     1
100
AcDbBlockReference
  2
LDR
 10
362.18125
 20
-144.456667
 30
0.0
 41
240.0
 42
240.0
 50
180.0
210
0.0
220
0.0
230
1.0
  0
LINE
  5
447
100
AcDbEntity
  8
1
  6
CONTINUOUS
 62
     7
100
AcDbLine
 10
323.18125
 20
-130.456667
 30
0.0
 11
323.18125
 21
-136.605833
 31
0.0
  0
LINE
  5
448
100
AcDbEntity
  8
1
  6
CONTINUOUS
 62
     7
100
AcDbLine
 10
323.18125
 20
-138.605833
 30
0.0
 11
323.18125
 21
-145.456667
 31
0.0
  0
TEXT
  5
449
100
AcDbEntity
  8
1
  6
CONTINUOUS
 62
     7
100
AcDbText
 10
341.881167
 20
-139.024917
 30
0.0
 40
2.5
  1
SIGN
  7
MONOTXT
 72
     4
 11
345.6705
 21
-137.774917
 31
0.0
210
0.0
220
0.0
230
1.0
100
AcDbText
  0
TEXT
  5
44A
100
AcDbEntity
  8
1
  6
CONTINUOUS
 62
     7
100
AcDbText
 10
341.2315
 20
-143.524917
 30
0.0
 40
2.5
  1
FACE
  7
MONOTXT
 72
     4
 11
345.670417
 21
-142.274917
 31
0.0
210
0.0
220
0.0
230
1.0
100
AcDbText
  0
TEXT
  5
44B
100
AcDbEntity
  8
1
  6
CONTINUOUS
 62
     7
100
AcDbText
 10
327.6515
 20
-115.260583
 30
0.0
 40
2.5
  1
1, 5
  7
MONOTXT
 72
     4
 11
330.456583
 21
-114.010583
 31
0.0
210
0.0
220
0.0
230
1.0
100
AcDbText
  0
TEXT
  5
44C
100
AcDbEntity
  8
1
  6
CONTINUOUS
 62
     7
100
AcDbText
 10
359.6795
 20
-115.331083
 30
0.0
 40
2.5
  1
4, 8
  7
MONOTXT
 72
     4
 11
363.075167
 21
-114.081083
 31
0.0
210
0.0
220
0.0
230
1.0
100
AcDbText
  0
TEXT
  5
44D
100
AcDbEntity
  8
1
  6
CONTINUOUS
 62
     7
100
AcDbText
 10
327.672167
 20
-136.191167
 30
0.0
 40
2.5
  1
2, 6
  7
MONOTXT
 72
     4
 11
330.949667
 21
-134.941167
 31
0.0
210
0.0
220
0.0
230
1.0
100
AcDbText
  0
TEXT
  5
44E
100
AcDbEntity
  8
1
  6
CONTINUOUS
 62
     7
100
AcDbText
 10
351.194333
 20
-136.12075
 30
0.0
 40
2.5
  1
3, 7
  7
MONOTXT
 72
     4
 11
354.54075
 21
-134.87075
 31
0.0
210
0.0
220
0.0
230
1.0
100
AcDbText
  0
TEXT
  5
44F
100
AcDbEntity
  8
1
  6
CONTINUOUS
 62
     7
100
AcDbText
 10
286.670833
 20
-139.151083
 30
0.0
 40
2.5
  1
GEN. NOTE 2.4.3
  7
MONOTXT
 72
     4
 11
302.487667
 21
-137.901083
 31
0.0
210
0.0
220
0.0
230
1.0
100
AcDbText
  0
TEXT
  5
450
100
AcDbEntity
  8
1
  6
CONTINUOUS
 62
     7
100
AcDbText
 10
312.601583
 20
-145.634667
 30
0.0
 40
2.5
  1
"e"
  7
MONOTXT
 72
     4
 11
315.2295
 21
-144.384667
 31
0.0
210
0.0
220
0.0
230
1.0
100
AcDbText
  0
TEXT
  5
451
100
AcDbEntity
  8
1
  6
CONTINUOUS
 62
     7
100
AcDbText
 10
367.05975
 20
-145.493667
 30
0.0
 40
2.5
  1
"e"
  7
MONOTXT
 72
     4
 11
369.687667
 21
-144.243667
 31
0.0
210
0.0
220
0.0
230
1.0
100
AcDbText
  0
TEXT
  5
452
100
AcDbEntity
  8
1
  6
CONTINUOUS
 62
     7
100
AcDbText
 10
320.928167
 20
-151.695333
 30
0.0
 40
2.5
  1
"f"
  7
MONOTXT
 72
     4
 11
323.260833
 21
-150.445333
 31
0.0
210
0.0
220
0.0
230
1.0
100
AcDbText
  0
TEXT
  5
453
100
AcDbEntity
  8
1
  6
CONTINUOUS
 62
     7
100
AcDbText
 10
359.18275
 20
-151.554417
 30
0.0
 40
2.5
  1
"f"
  7
MONOTXT
 72
     4
 11
361.515417
 21
-150.304417
 31
0.0
210
0.0
220
0.0
230
1.0
100
AcDbText
  0
TEXT
  5
454
100
AcDbEntity
  8
1
  6
CONTINUOUS
 62
     7
100
AcDbText
 10
368.487667
 20
-130.400667
 30
0.0
 40
2.5
  1
"e"   3" MINIMUM
  7
MONOTXT
 11
368.487667
 21
-127.900667
 31
0.0
210
0.0
220
0.0
230
1.0
100
AcDbText
 73
     3
  0
TEXT
  5
455
100
AcDbEntity
  8
1
  6
CONTINUOUS
 62
     7
100
AcDbText
 10
368.487667
 20
-134.900667
 30
0.0
 40
2.5
  1
"f"   SEE GENERAL NOTE 2.4.4
  7
MONOTXT
 11
368.487667
 21
-132.400667
 31
0.0
210
0.0
220
0.0
230
1.0
100
AcDbText
 73
     3
  0
TEXT
  5
456
100
AcDbEntity
  8
1
  6
CONTINUOUS
 62
     7
100
AcDbText
 10
376.086333
 20
-131.003417
 30
0.0
 40
4.0
  1
=
  7
MONOTXT
 72
     4
 11
376.984
 21
-129.003417
 31
0.0
210
0.0
220
0.0
230
1.0
100
AcDbText
  0
TEXT
  5
457
100
AcDbEntity
  8
1
  6
CONTINUOUS
 62
     7
100
AcDbText
 10
375.614167
 20
-135.431417
 30
0.0
 40
4.0
  1
=
  7
MONOTXT
 72
     4
 11
376.511833
 21
-133.431417
 31
0.0
210
0.0
220
0.0
230
1.0
100
AcDbText
  0
LINE
  5
458
100
AcDbEntity
  8
1
  6
CONTINUOUS
 62
     3
100
AcDbLine
 10
91.446167
 20
-238.422583
 30
0.0
 11
92.466167
 21
-238.422583
 31
0.0
  0
LINE
  5
459
100
AcDbEntity
  8
1
  6
CONTINUOUS
 62
     3
100
AcDbLine
 10
91.446167
 20
-237.402583
 30
0.0
 11
92.466167
 21
-237.402583
 31
0.0
  0
LINE
  5
45A
100
AcDbEntity
  8
1
  6
CONTINUOUS
 62
     3
100
AcDbLine
 10
91.446167
 20
-239.422583
 30
0.0
 11
92.466167
 21
-239.422583
 31
0.0
  0
LINE
  5
45B
100
AcDbEntity
  8
1
  6
CONTINUOUS
 62
     3
100
AcDbLine
 10
92.466167
 20
-234.382583
 30
0.0
 11
92.466167
 21
-238.422583
 31
0.0
  0
LINE
  5
45C
100
AcDbEntity
  8
1
  6
CONTINUOUS
 62
     3
100
AcDbLine
 10
92.466167
 20
-238.422583
 30
0.0
 11
92.466167
 21
-244.462583
 31
0.0
  0
ARC
  5
45D
100
AcDbEntity
  8
1
  6
CONTINUOUS
 62
   132
100
AcDbCircle
 10
89.436167
 20
-238.412583
 30
0.0
 40
1.01005
210
0.0
220
0.0
230
1.0
100
AcDbArc
 50
89.432733
 51
270.567267
  0
TEXT
  5
45E
100
AcDbEntity
  8
1
  6
CONTINUOUS
 62
     7
100
AcDbText
 10
139.11625
 20
-266.635333
 30
0.0
 40
2.016
  1
SQUARE HD.
  7
MONOTXT
 11
139.11625
 21
-264.619333
 31
0.0
210
0.0
220
0.0
230
1.0
100
AcDbText
 73
     3
  0
TEXT
  5
45F
100
AcDbEntity
  8
1
  6
CONTINUOUS
 62
     7
100
AcDbText
 10
139.11625
 20
-270.651333
 30
0.0
 40
2.016
  1
POST-CLIP
  7
MONOTXT
 11
139.11625
 21
-268.635333
 31
0.0
210
0.0
220
0.0
230
1.0
100
AcDbText
 73
     3
  0
TEXT
  5
460
100
AcDbEntity
  8
1
  6
CONTINUOUS
 62
     7
100
AcDbText
 10
139.11625
 20
-274.667333
 30
0.0
 40
2.016
  1
TYPE BOLTS
  7
MONOTXT
 11
139.11625
 21
-272.651333
 31
0.0
210
0.0
220
0.0
230
1.0
100
AcDbText
 73
     3
  0
TEXT
  5
461
100
AcDbEntity
  8
1
  6
CONTINUOUS
 62
     7
100
AcDbText
 10
139.11625
 20
-278.683333
 30
0.0
 40
2.016
  1
(CADMIUM PLATED)
  7
MONOTXT
 11
139.11625
 21
-276.667333
 31
0.0
210
0.0
220
0.0
230
1.0
100
AcDbText
 73
     3
  0
LINE
  5
462
100
AcDbEntity
  8
1
  6
CONTINUOUS
 62
     1
100
AcDbLine
 10
218.850833
 20
-232.182667
 30
0.0
 11
378.850833
 21
-232.182667
 31
0.0
  0
LINE
  5
463
100
AcDbEntity
  8
1
  6
CONTINUOUS
 62
     1
100
AcDbLine
 10
378.850833
 20
-232.182667
 30
0.0
 11
378.850833
 21
-292.182667
 31
0.0
  0
LINE
  5
464
100
AcDbEntity
  8
1
  6
CONTINUOUS
 62
     1
100
AcDbLine
 10
378.850833
 20
-292.182667
 30
0.0
 11
218.850833
 21
-292.182667
 31
0.0
  0
LINE
  5
465
100
AcDbEntity
  8
1
  6
CONTINUOUS
 62
     1
100
AcDbLine
 10
218.850833
 20
-292.182667
 30
0.0
 11
218.850833
 21
-232.182667
 31
0.0
  0
LINE
  5
466
100
AcDbEntity
  8
1
  6
CONTINUOUS
 62
     1
100
AcDbLine
 10
258.850833
 20
-292.182667
 30
0.0
 11
258.850833
 21
-232.182667
 31
0.0
  0
LINE
  5
467
100
AcDbEntity
  8
1
  6
CONTINUOUS
 62
     1
100
AcDbLine
 10
278.850833
 20
-292.182667
 30
0.0
 11
278.850833
 21
-237.182667
 31
0.0
  0
LINE
  5
468
100
AcDbEntity
  8
1
  6
CONTINUOUS
 62
     1
100
AcDbLine
 10
298.850833
 20
-292.182667
 30
0.0
 11
298.850833
 21
-232.182667
 31
0.0
  0
LINE
  5
469
100
AcDbEntity
  8
1
  6
CONTINUOUS
 62
     1
100
AcDbLine
 10
318.850833
 20
-292.182667
 30
0.0
 11
318.850833
 21
-237.182667
 31
0.0
  0
LINE
  5
46A
100
AcDbEntity
  8
1
  6
CONTINUOUS
 62
     1
100
AcDbLine
 10
338.850833
 20
-292.182667
 30
0.0
 11
338.850833
 21
-237.182667
 31
0.0
  0
LINE
  5
46B
100
AcDbEntity
  8
1
  6
CONTINUOUS
 62
     1
100
AcDbLine
 10
358.850833
 20
-292.182667
 30
0.0
 11
358.850833
 21
-237.182667
 31
0.0
  0
LINE
  5
46C
100
AcDbEntity
  8
1
  6
CONTINUOUS
 62
     1
100
AcDbLine
 10
258.850833
 20
-237.182667
 30
0.0
 11
378.850833
 21
-237.182667
 31
0.0
  0
LINE
  5
46D
100
AcDbEntity
  8
1
  6
CONTINUOUS
 62
     1
100
AcDbLine
 10
218.850833
 20
-242.182667
 30
0.0
 11
378.850833
 21
-242.182667
 31
0.0
  0
LINE
  5
46E
100
AcDbEntity
  8
1
  6
CONTINUOUS
 62
     1
100
AcDbLine
 10
258.850833
 20
-252.182667
 30
0.0
 11
378.850833
 21
-252.182667
 31
0.0
  0
LINE
  5
46F
100
AcDbEntity
  8
1
  6
CONTINUOUS
 62
     1
100
AcDbLine
 10
278.850833
 20
-262.182667
 30
0.0
 11
378.850833
 21
-262.182667
 31
0.0
  0
LINE
  5
470
100
AcDbEntity
  8
1
  6
CONTINUOUS
 62
     1
100
AcDbLine
 10
258.850833
 20
-272.182667
 30
0.0
 11
378.850833
 21
-272.182667
 31
0.0
  0
LINE
  5
471
100
AcDbEntity
  8
1
  6
CONTINUOUS
 62
     1
100
AcDbLine
 10
258.850833
 20
-282.182667
 30
0.0
 11
378.850833
 21
-282.182667
 31
0.0
  0
LINE
  5
472
100
AcDbEntity
  8
1
  6
CONTINUOUS
 62
     1
100
AcDbLine
 10
301.850833
 20
-247.182667
 30
0.0
 11
315.850833
 21
-247.182667
 31
0.0
  0
LINE
  5
473
100
AcDbEntity
  8
1
  6
CONTINUOUS
 62
     1
100
AcDbLine
 10
324.350833
 20
-247.182667
 30
0.0
 11
333.350833
 21
-247.182667
 31
0.0
  0
LINE
  5
474
100
AcDbEntity
  8
1
  6
CONTINUOUS
 62
     1
100
AcDbLine
 10
344.850833
 20
-247.182667
 30
0.0
 11
352.850833
 21
-247.182667
 31
0.0
  0
LINE
  5
475
100
AcDbEntity
  8
1
  6
CONTINUOUS
 62
     1
100
AcDbLine
 10
364.850833
 20
-247.182667
 30
0.0
 11
372.850833
 21
-247.182667
 31
0.0
  0
LINE
  5
476
100
AcDbEntity
  8
1
  6
CONTINUOUS
 62
     1
100
AcDbLine
 10
301.850833
 20
-257.182667
 30
0.0
 11
315.850833
 21
-257.182667
 31
0.0
  0
LINE
  5
477
100
AcDbEntity
  8
1
  6
CONTINUOUS
 62
     1
100
AcDbLine
 10
324.350833
 20
-257.182667
 30
0.0
 11
333.350833
 21
-257.182667
 31
0.0
  0
LINE
  5
478
100
AcDbEntity
  8
1
  6
CONTINUOUS
 62
     1
100
AcDbLine
 10
342.350833
 20
-257.182667
 30
0.0
 11
355.350833
 21
-257.182667
 31
0.0
  0
LINE
  5
479
100
AcDbEntity
  8
1
  6
CONTINUOUS
 62
     1
100
AcDbLine
 10
363.850833
 20
-257.182667
 30
0.0
 11
373.850833
 21
-257.182667
 31
0.0
  0
LINE
  5
47A
100
AcDbEntity
  8
1
  6
CONTINUOUS
 62
     1
100
AcDbLine
 10
301.850833
 20
-267.182667
 30
0.0
 11
315.850833
 21
-267.182667
 31
0.0
  0
LINE
  5
47B
100
AcDbEntity
  8
1
  6
CONTINUOUS
 62
     1
100
AcDbLine
 10
324.350833
 20
-267.182667
 30
0.0
 11
333.350833
 21
-267.182667
 31
0.0
  0
LINE
  5
47C
100
AcDbEntity
  8
1
  6
CONTINUOUS
 62
     1
100
AcDbLine
 10
342.350833
 20
-267.182667
 30
0.0
 11
355.350833
 21
-267.182667
 31
0.0
  0
LINE
  5
47D
100
AcDbEntity
  8
1
  6
CONTINUOUS
 62
     1
100
AcDbLine
 10
363.350833
 20
-267.182667
 30
0.0
 11
373.850833
 21
-267.182667
 31
0.0
  0
LINE
  5
47E
100
AcDbEntity
  8
1
  6
CONTINUOUS
 62
     1
100
AcDbLine
 10
301.350833
 20
-277.182667
 30
0.0
 11
316.350833
 21
-277.182667
 31
0.0
  0
LINE
  5
47F
100
AcDbEntity
  8
1
  6
CONTINUOUS
 62
     1
100
AcDbLine
 10
321.850833
 20
-277.182667
 30
0.0
 11
335.850833
 21
-277.182667
 31
0.0
  0
LINE
  5
480
100
AcDbEntity
  8
1
  6
CONTINUOUS
 62
     1
100
AcDbLine
 10
344.850833
 20
-277.182667
 30
0.0
 11
352.850833
 21
-277.182667
 31
0.0
  0
LINE
  5
481
100
AcDbEntity
  8
1
  6
CONTINUOUS
 62
     1
100
AcDbLine
 10
364.850833
 20
-277.182667
 30
0.0
 11
372.850833
 21
-277.182667
 31
0.0
  0
LINE
  5
482
100
AcDbEntity
  8
1
  6
CONTINUOUS
 62
     1
100
AcDbLine
 10
301.350833
 20
-287.182667
 30
0.0
 11
316.350833
 21
-287.182667
 31
0.0
  0
LINE
  5
483
100
AcDbEntity
  8
1
  6
CONTINUOUS
 62
     1
100
AcDbLine
 10
321.850833
 20
-287.182667
 30
0.0
 11
335.850833
 21
-287.182667
 31
0.0
  0
LINE
  5
484
100
AcDbEntity
  8
1
  6
CONTINUOUS
 62
     1
100
AcDbLine
 10
344.850833
 20
-287.182667
 30
0.0
 11
352.850833
 21
-287.182667
 31
0.0
  0
LINE
  5
485
100
AcDbEntity
  8
1
  6
CONTINUOUS
 62
     1
100
AcDbLine
 10
364.850833
 20
-287.182667
 30
0.0
 11
372.850833
 21
-287.182667
 31
0.0
  0
TEXT
  5
486
100
AcDbEntity
  8
1
  6
CONTINUOUS
 62
     7
100
AcDbText
 10
224.008083
 20
-238.779833
 30
0.0
 40
3.5
  1
SIGN SHAPE
  7
TXT
 72
     4
 11
238.567083
 21
-237.029833
 31
0.0
210
0.0
220
0.0
230
1.0
100
AcDbText
  0
TEXT
  5
487
100
AcDbEntity
  8
1
  6
CONTINUOUS
 62
     7
100
AcDbText
 10
227.899917
 20
-259.898667
 30
0.0
 40
3.5
  1
VERTICAL
  7
TXT
 72
     4
 11
238.566917
 21
-258.148667
 31
0.0
210
0.0
220
0.0
230
1.0
100
AcDbText
  0
TEXT
  5
488
100
AcDbEntity
  8
1
  6
CONTINUOUS
 62
     7
100
AcDbText
 10
225.32325
 20
-275.398667
 30
0.0
 40
3.5
  1
RECTANGLE
  7
TXT
 72
     4
 11
238.567083
 21
-273.648667
 31
0.0
210
0.0
220
0.0
230
1.0
100
AcDbText
  0
TEXT
  5
489
100
AcDbEntity
  8
1
  6
CONTINUOUS
 62
     7
100
AcDbText
 10
265.291083
 20
-267.0625
 30
0.0
 40
3.5
  1
54"
  7
TXT
 72
     4
 11
268.744917
 21
-265.3125
 31
0.0
210
0.0
220
0.0
230
1.0
100
AcDbText
  0
TEXT
  5
48A
100
AcDbEntity
  8
1
  6
CONTINUOUS
 62
     7
100
AcDbText
 10
259.746167
 20
-278.785833
 30
0.0
 40
3.5
  1
42"  78"
  7
TXT
 72
     4
 11
268.744833
 21
-277.035833
 31
0.0
210
0.0
220
0.0
230
1.0
100
AcDbText
  0
TEXT
  5
48B
100
AcDbEntity
  8
1
  6
CONTINUOUS
 62
     7
100
AcDbText
 10
286.18875
 20
-250.50325
 30
0.0
 40
3.5
  1
9"
  7
TXT
 72
     4
 11
288.375167
 21
-248.75325
 31
0.0
210
0.0
220
0.0
230
1.0
100
AcDbText
  0
TEXT
  5
48C
100
AcDbEntity
  8
1
  6
CONTINUOUS
 62
     7
100
AcDbText
 10
280.328917
 20
-256.098
 30
0.0
 40
3.5
  1
9"
  7
TXT
 72
     4
 11
282.515333
 21
-254.348
 31
0.0
210
0.0
220
0.0
230
1.0
100
AcDbText
  0
TEXT
  5
48D
100
AcDbEntity
  8
1
  6
CONTINUOUS
 62
     7
100
AcDbText
 10
290.38375
 20
-261.599667
 30
0.0
 40
3.5
  1
24"
  7
TXT
 72
     4
 11
293.837583
 21
-259.849667
 31
0.0
210
0.0
220
0.0
230
1.0
100
AcDbText
  0
TEXT
  5
48E
100
AcDbEntity
  8
1
  6
CONTINUOUS
 62
     7
100
AcDbText
 10
279.070333
 20
-266.1325
 30
0.0
 40
3.5
  1
24"
  7
TXT
 72
     4
 11
282.524167
 21
-264.3825
 31
0.0
210
0.0
220
0.0
230
1.0
100
AcDbText
  0
TEXT
  5
48F
100
AcDbEntity
  8
1
  6
CONTINUOUS
 62
     7
100
AcDbText
 10
290.42875
 20
-271.592083
 30
0.0
 40
3.5
  1
36"
  7
TXT
 72
     4
 11
293.882583
 21
-269.842083
 31
0.0
210
0.0
220
0.0
230
1.0
100
AcDbText
  0
TEXT
  5
490
100
AcDbEntity
  8
1
  6
CONTINUOUS
 62
     7
100
AcDbText
 10
279.669417
 20
-278.79025
 30
0.0
 40
3.5
  1
36"  66"
  7
TXT
 72
     4
 11
288.668083
 21
-277.04025
 31
0.0
210
0.0
220
0.0
230
1.0
100
AcDbText
  0
TEXT
  5
491
100
AcDbEntity
  8
1
  6
CONTINUOUS
 62
     7
100
AcDbText
 10
284.944417
 20
-290.496
 30
0.0
 40
3.5
  1
66"
  7
TXT
 72
     4
 11
288.39825
 21
-288.746
 31
0.0
210
0.0
220
0.0
230
1.0
100
AcDbText
  0
TEXT
  5
492
100
AcDbEntity
  8
1
  6
CONTINUOUS
 62
     7
100
AcDbText
 10
270.214417
 20
-235.788667
 30
0.0
 40
2.5
  1
SIGN SIZE
  7
TXT
 72
     4
 11
278.706417
 21
-234.538667
 31
0.0
210
0.0
220
0.0
230
1.0
100
AcDbText
  0
TEXT
  5
493
100
AcDbEntity
  8
1
  6
CONTINUOUS
 62
     7
100
AcDbText
 10
262.6605
 20
-240.771083
 30
0.0
 40
2.5
  1
HEIGHT
  7
TXT
 72
     4
 11
268.598333
 21
-239.521083
 31
0.0
210
0.0
220
0.0
230
1.0
100
AcDbText
  0
TEXT
  5
494
100
AcDbEntity
  8
1
  6
CONTINUOUS
 62
     7
100
AcDbText
 10
283.593083
 20
-240.6245
 30
0.0
 40
2.5
  1
WIDTH
  7
TXT
 72
     4
 11
288.814667
 21
-239.3745
 31
0.0
210
0.0
220
0.0
230
1.0
100
AcDbText
  0
TEXT
  5
495
100
AcDbEntity
  8
1
  6
CONTINUOUS
 62
     7
100
AcDbText
 10
329.807833
 20
-235.788667
 30
0.0
 40
2.5
  1
DIMENSION
  7
TXT
 72
     4
 11
338.91575
 21
-234.538667
 31
0.0
210
0.0
220
0.0
230
1.0
100
AcDbText
  0
TEXT
  5
496
100
AcDbEntity
  8
1
  6
CONTINUOUS
 62
     7
100
AcDbText
 10
307.73025
 20
-240.6245
 30
0.0
 40
2.5
  1
A
  7
TXT
 72
     4
 11
308.884417
 21
-239.3745
 31
0.0
210
0.0
220
0.0
230
1.0
100
AcDbText
  0
TEXT
  5
497
100
AcDbEntity
  8
1
  6
CONTINUOUS
 62
     7
100
AcDbText
 10
327.6975
 20
-240.771083
 30
0.0
 40
2.5
  1
B
  7
TXT
 72
     4
 11
328.661167
 21
-239.521083
 31
0.0
210
0.0
220
0.0
230
1.0
100
AcDbText
  0
TEXT
  5
498
100
AcDbEntity
  8
1
  6
CONTINUOUS
 62
     7
100
AcDbText
 10
347.5715
 20
-240.771083
 30
0.0
 40
2.5
  1
C
  7
TXT
 72
     4
 11
348.584333
 21
-239.521083
 31
0.0
210
0.0
220
0.0
230
1.0
100
AcDbText
  0
TEXT
  5
499
100
AcDbEntity
  8
1
  6
CONTINUOUS
 62
     7
100
AcDbText
 10
367.861583
 20
-240.771083
 30
0.0
 40
2.5
  1
D
  7
TXT
 72
     4
 11
368.947167
 21
-239.521083
 31
0.0
210
0.0
220
0.0
230
1.0
100
AcDbText
  0
TEXT
  5
49A
100
AcDbEntity
  8
1
  6
CONTINUOUS
 62
     7
100
AcDbText
 10
262.549167
 20
-245.14125
 30
0.0
 40
2.0
  1
GREATER
  7
TXT
 72
     4
 11
268.451833
 21
-244.14125
 31
0.0
210
0.0
220
0.0
230
1.0
100
AcDbText
  0
TEXT
  5
49B
100
AcDbEntity
  8
1
  6
CONTINUOUS
 62
     7
100
AcDbText
 10
264.944333
 20
-248.14125
 30
0.0
 40
2.0
  1
THAN
  7
TXT
 72
     4
 11
268.451833
 21
-247.14125
 31
0.0
210
0.0
220
0.0
230
1.0
100
AcDbText
  0
TEXT
  5
49C
100
AcDbEntity
  8
1
  6
CONTINUOUS
 62
     7
100
AcDbText
 10
264.274667
 20
-251.14125
 30
0.0
 40
2.0
  1
WIDTH
  7
TXT
 72
     4
 11
268.451917
 21
-250.14125
 31
0.0
210
0.0
220
0.0
230
1.0
100
AcDbText
  0
TEXT
  5
49D
100
AcDbEntity
  8
1
  6
CONTINUOUS
 62
     7
100
AcDbText
 10
265.3165
 20
-259.390417
 30
0.0
 40
2.0
  1
LESS
  7
TXT
 72
     4
 11
268.451917
 21
-258.390417
 31
0.0
210
0.0
220
0.0
230
1.0
100
AcDbText
  0
TEXT
  5
49E
100
AcDbEntity
  8
1
  6
CONTINUOUS
 62
     7
100
AcDbText
 10
264.944333
 20
-262.390417
 30
0.0
 40
2.0
  1
THAN
  7
TXT
 72
     4
 11
268.451833
 21
-261.390417
 31
0.0
210
0.0
220
0.0
230
1.0
100
AcDbText
  0
TEXT
  5
49F
100
AcDbEntity
  8
1
  6
CONTINUOUS
 62
     7
100
AcDbText
 10
266.8745
 20
-279.061667
 30
0.0
 40
2.0
  1
TO
  7
TXT
 72
     4
 11
268.598417
 21
-278.061667
 31
0.0
210
0.0
220
0.0
230
1.0
100
AcDbText
  0
TEXT
  5
4A0
100
AcDbEntity
  8
1
  6
CONTINUOUS
 62
     7
100
AcDbText
 10
262.842167
 20
-285.14725
 30
0.0
 40
2.0
  1
GREATER
  7
TXT
 72
     4
 11
268.744833
 21
-284.14725
 31
0.0
210
0.0
220
0.0
230
1.0
100
AcDbText
  0
TEXT
  5
4A1
100
AcDbEntity
  8
1
  6
CONTINUOUS
 62
     7
100
AcDbText
 10
265.237333
 20
-288.14725
 30
0.0
 40
2.0
  1
THAN
  7
TXT
 72
     4
 11
268.744833
 21
-287.14725
 31
0.0
210
0.0
220
0.0
230
1.0
100
AcDbText
  0
TEXT
  5
4A2
100
AcDbEntity
  8
1
  6
CONTINUOUS
 62
     7
100
AcDbText
 10
264.567667
 20
-291.14725
 30
0.0
 40
2.0
  1
WIDTH
  7
TXT
 72
     4
 11
268.744917
 21
-290.14725
 31
0.0
210
0.0
220
0.0
230
1.0
100
AcDbText
  0
TEXT
  5
4A3
100
AcDbEntity
  8
1
  6
CONTINUOUS
 62
     7
100
AcDbText
 10
281.385417
 20
-245.796583
 30
0.0
 40
2.0
  1
LESS THAN
  7
TXT
 72
     4
 11
288.961167
 21
-244.796583
 31
0.0
210
0.0
220
0.0
230
1.0
100
AcDbText
  0
TEXT
  5
4A4
100
AcDbEntity
  8
1
  6
CONTINUOUS
 62
     7
100
AcDbText
 10
284.93375
 20
-255.680333
 30
0.0
 40
2.0
  1
OR OVER
  7
TXT
 72
     4
 11
291.075917
 21
-254.680333
 31
0.0
210
0.0
220
0.0
230
1.0
100
AcDbText
  0
TEXT
  5
4A5
100
AcDbEntity
  8
1
  6
CONTINUOUS
 62
     7
100
AcDbText
 10
285.585417
 20
-258.389333
 30
0.0
 40
2.0
  1
BUT
  7
TXT
 72
     4
 11
288.14875
 21
-257.389333
 31
0.0
210
0.0
220
0.0
230
1.0
100
AcDbText
  0
TEXT
  5
4A6
100
AcDbEntity
  8
1
  6
CONTINUOUS
 62
     7
100
AcDbText
 10
280.316083
 20
-261.160917
 30
0.0
 40
2.0
  1
UNDER
  7
TXT
 72
     4
 11
284.734917
 21
-260.160917
 31
0.0
210
0.0
220
0.0
230
1.0
100
AcDbText
  0
TEXT
  5
4A7
100
AcDbEntity
  8
1
  6
CONTINUOUS
 62
     7
100
AcDbText
 10
286.021417
 20
-265.42925
 30
0.0
 40
2.0
  1
OR OVER
  7
TXT
 72
     4
 11
292.163583
 21
-264.42925
 31
0.0
210
0.0
220
0.0
230
1.0
100
AcDbText
  0
TEXT
  5
4A8
100
AcDbEntity
  8
1
  6
CONTINUOUS
 62
     7
100
AcDbText
 10
280.142083
 20
-271.170917
 30
0.0
 40
2.0
  1
UNDER
  7
TXT
 72
     4
 11
284.560917
 21
-270.170917
 31
0.0
210
0.0
220
0.0
230
1.0
100
AcDbText
  0
TEXT
  5
4A9
100
AcDbEntity
  8
1
  6
CONTINUOUS
 62
     7
100
AcDbText
 10
285.672417
 20
-268.355917
 30
0.0
 40
2.0
  1
BUT
  7
TXT
 72
     4
 11
288.23575
 21
-267.355917
 31
0.0
210
0.0
220
0.0
230
1.0
100
AcDbText
  0
TEXT
  5
4AA
100
AcDbEntity
  8
1
  6
CONTINUOUS
 62
     7
100
AcDbText
 10
286.627333
 20
-279.061667
 30
0.0
 40
2.0
  1
TO
  7
TXT
 72
     4
 11
288.35125
 21
-278.061667
 31
0.0
210
0.0
220
0.0
230
1.0
100
AcDbText
  0
TEXT
  5
4AB
100
AcDbEntity
  8
1
  6
CONTINUOUS
 62
     7
100
AcDbText
 10
280.644833
 20
-285.685667
 30
0.0
 40
2.0
  1
MORE THAN
  7
TXT
 72
     4
 11
288.781167
 21
-284.685667
 31
0.0
210
0.0
220
0.0
230
1.0
100
AcDbText
  0
TEXT
  5
4AC
100
AcDbEntity
  8
1
  6
CONTINUOUS
 62
     7
100
AcDbText
 10
302.351083
 20
-246.230417
 30
0.0
 40
2.0
  1
HEIGHT-1"
  7
TXT
 72
     4
 11
308.798917
 21
-245.230417
 31
0.0
210
0.0
220
0.0
230
1.0
100
AcDbText
  0
TEXT
  5
4AD
100
AcDbEntity
  8
1
  6
CONTINUOUS
 62
     7
100
AcDbText
 10
308.1505
 20
-250.230417
 30
0.0
 40
2.0
  1
2
  7
TXT
 72
     4
 11
308.799
 21
-249.230417
 31
0.0
210
0.0
220
0.0
230
1.0
100
AcDbText
  0
TEXT
  5
4AE
100
AcDbEntity
  8
1
  6
CONTINUOUS
 62
     7
100
AcDbText
 10
302.361417
 20
-256.08175
 30
0.0
 40
2.0
  1
HEIGHT-3"
  7
TXT
 72
     4
 11
309.0335
 21
-255.08175
 31
0.0
210
0.0
220
0.0
230
1.0
100
AcDbText
  0
TEXT
  5
4AF
100
AcDbEntity
  8
1
  6
CONTINUOUS
 62
     7
100
AcDbText
 10
308.385
 20
-260.08175
 30
0.0
 40
2.0
  1
2
  7
TXT
 72
     4
 11
309.0335
 21
-259.08175
 31
0.0
210
0.0
220
0.0
230
1.0
100
AcDbText
  0
TEXT
  5
4B0
100
AcDbEntity
  8
1
  6
CONTINUOUS
 62
     7
100
AcDbText
 10
302.213417
 20
-266.074917
 30
0.0
 40
2.0
  1
HEIGHT-6"
  7
TXT
 72
     4
 11
308.8855
 21
-265.074917
 31
0.0
210
0.0
220
0.0
230
1.0
100
AcDbText
  0
TEXT
  5
4B1
100
AcDbEntity
  8
1
  6
CONTINUOUS
 62
     7
100
AcDbText
 10
308.237
 20
-270.074917
 30
0.0
 40
2.0
  1
2
  7
TXT
 72
     4
 11
308.8855
 21
-269.074917
 31
0.0
210
0.0
220
0.0
230
1.0
100
AcDbText
  0
TEXT
  5
4B2
100
AcDbEntity
  8
1
  6
CONTINUOUS
 62
     7
100
AcDbText
 10
301.861417
 20
-276.142167
 30
0.0
 40
2.0
  1
HEIGHT-12"
  7
TXT
 72
     4
 11
309.0335
 21
-275.142167
 31
0.0
210
0.0
220
0.0
230
1.0
100
AcDbText
  0
TEXT
  5
4B3
100
AcDbEntity
  8
1
  6
CONTINUOUS
 62
     7
100
AcDbText
 10
308.385
 20
-280.142167
 30
0.0
 40
2.0
  1
2
  7
TXT
 72
     4
 11
309.0335
 21
-279.142167
 31
0.0
210
0.0
220
0.0
230
1.0
100
AcDbText
  0
TEXT
  5
4B4
100
AcDbEntity
  8
1
  6
CONTINUOUS
 62
     7
100
AcDbText
 10
301.489167
 20
-286.135333
 30
0.0
 40
2.0
  1
HEIGHT-24"
  7
TXT
 72
     4
 11
308.8855
 21
-285.135333
 31
0.0
210
0.0
220
0.0
230
1.0
100
AcDbText
  0
TEXT
  5
4B5
100
AcDbEntity
  8
1
  6
CONTINUOUS
 62
     7
100
AcDbText
 10
308.237
 20
-290.135333
 30
0.0
 40
2.0
  1
2
  7
TXT
 72
     4
 11
308.8855
 21
-289.135333
 31
0.0
210
0.0
220
0.0
230
1.0
100
AcDbText
  0
TEXT
  5
4B6
100
AcDbEntity
  8
1
  6
CONTINUOUS
 62
     7
100
AcDbText
 10
324.466167
 20
-246.0885
 30
0.0
 40
2.0
  1
WIDTH
  7
TXT
 72
     4
 11
328.643417
 21
-245.0885
 31
0.0
210
0.0
220
0.0
230
1.0
100
AcDbText
  0
TEXT
  5
4B7
100
AcDbEntity
  8
1
  6
CONTINUOUS
 62
     7
100
AcDbText
 10
327.994917
 20
-250.0885
 30
0.0
 40
2.0
  1
2
  7
TXT
 72
     4
 11
328.643417
 21
-249.0885
 31
0.0
210
0.0
220
0.0
230
1.0
100
AcDbText
  0
TEXT
  5
4B8
100
AcDbEntity
  8
1
  6
CONTINUOUS
 62
     7
100
AcDbText
 10
324.392167
 20
-256.08175
 30
0.0
 40
2.0
  1
WIDTH
  7
TXT
 72
     4
 11
328.569417
 21
-255.08175
 31
0.0
210
0.0
220
0.0
230
1.0
100
AcDbText
  0
TEXT
  5
4B9
100
AcDbEntity
  8
1
  6
CONTINUOUS
 62
     7
100
AcDbText
 10
327.920917
 20
-260.08175
 30
0.0
 40
2.0
  1
2
  7
TXT
 72
     4
 11
328.569417
 21
-259.08175
 31
0.0
210
0.0
220
0.0
230
1.0
100
AcDbText
  0
TEXT
  5
4BA
100
AcDbEntity
  8
1
  6
CONTINUOUS
 62
     7
100
AcDbText
 10
324.614167
 20
-266.074917
 30
0.0
 40
2.0
  1
WIDTH
  7
TXT
 72
     4
 11
328.791417
 21
-265.074917
 31
0.0
210
0.0
220
0.0
230
1.0
100
AcDbText
  0
TEXT
  5
4BB
100
AcDbEntity
  8
1
  6
CONTINUOUS
 62
     7
100
AcDbText
 10
328.142917
 20
-270.074917
 30
0.0
 40
2.0
  1
2
  7
TXT
 72
     4
 11
328.791417
 21
-269.074917
 31
0.0
210
0.0
220
0.0
230
1.0
100
AcDbText
  0
TEXT
  5
4BC
100
AcDbEntity
  8
1
  6
CONTINUOUS
 62
     7
100
AcDbText
 10
322.027083
 20
-276.142167
 30
0.0
 40
2.0
  1
WIDTH-12"
  7
TXT
 72
     4
 11
328.717417
 21
-275.142167
 31
0.0
210
0.0
220
0.0
230
1.0
100
AcDbText
  0
TEXT
  5
4BD
100
AcDbEntity
  8
1
  6
CONTINUOUS
 62
     7
100
AcDbText
 10
328.068917
 20
-280.142167
 30
0.0
 40
2.0
  1
2
  7
TXT
 72
     4
 11
328.717417
 21
-279.142167
 31
0.0
210
0.0
220
0.0
230
1.0
100
AcDbText
  0
TEXT
  5
4BE
100
AcDbEntity
  8
1
  6
CONTINUOUS
 62
     7
100
AcDbText
 10
321.876833
 20
-286.209333
 30
0.0
 40
2.0
  1
WIDTH-24"
  7
TXT
 72
     4
 11
328.791333
 21
-285.209333
 31
0.0
210
0.0
220
0.0
230
1.0
100
AcDbText
  0
TEXT
  5
4BF
100
AcDbEntity
  8
1
  6
CONTINUOUS
 62
     7
100
AcDbText
 10
328.142917
 20
-290.209333
 30
0.0
 40
2.0
  1
2
  7
TXT
 72
     4
 11
328.791417
 21
-289.209333
 31
0.0
210
0.0
220
0.0
230
1.0
100
AcDbText
  0
TEXT
  5
4C0
100
AcDbEntity
  8
1
  6
CONTINUOUS
 62
     7
100
AcDbText
 10
342.803083
 20
-256.08175
 30
0.0
 40
2.0
  1
WIDTH-3"
  7
TXT
 72
     4
 11
348.993417
 21
-255.08175
 31
0.0
210
0.0
220
0.0
230
1.0
100
AcDbText
  0
TEXT
  5
4C1
100
AcDbEntity
  8
1
  6
CONTINUOUS
 62
     7
100
AcDbText
 10
348.344917
 20
-260.08175
 30
0.0
 40
2.0
  1
2
  7
TXT
 72
     4
 11
348.993417
 21
-259.08175
 31
0.0
210
0.0
220
0.0
230
1.0
100
AcDbText
  0
TEXT
  5
4C2
100
AcDbEntity
  8
1
  6
CONTINUOUS
 62
     7
100
AcDbText
 10
342.729083
 20
-266.074917
 30
0.0
 40
2.0
  1
WIDTH-6"
  7
TXT
 72
     4
 11
348.919417
 21
-265.074917
 31
0.0
210
0.0
220
0.0
230
1.0
100
AcDbText
  0
TEXT
  5
4C3
100
AcDbEntity
  8
1
  6
CONTINUOUS
 62
     7
100
AcDbText
 10
348.270917
 20
-270.074917
 30
0.0
 40
2.0
  1
2
  7
TXT
 72
     4
 11
348.919417
 21
-269.074917
 31
0.0
210
0.0
220
0.0
230
1.0
100
AcDbText
  0
TEXT
  5
4C4
100
AcDbEntity
  8
1
  6
CONTINUOUS
 62
     7
100
AcDbText
 10
364.001
 20
-256.007667
 30
0.0
 40
2.0
  1
HEIGHT
  7
TXT
 72
     4
 11
368.75125
 21
-255.007667
 31
0.0
210
0.0
220
0.0
230
1.0
100
AcDbText
  0
TEXT
  5
4C5
100
AcDbEntity
  8
1
  6
CONTINUOUS
 62
     7
100
AcDbText
 10
368.102833
 20
-260.007667
 30
0.0
 40
2.0
  1
2
  7
TXT
 72
     4
 11
368.751333
 21
-259.007667
 31
0.0
210
0.0
220
0.0
230
1.0
100
AcDbText
  0
TEXT
  5
4C6
100
AcDbEntity
  8
1
  6
CONTINUOUS
 62
     7
100
AcDbText
 10
363.853
 20
-266.148917
 30
0.0
 40
2.0
  1
HEIGHT
  7
TXT
 72
     4
 11
368.60325
 21
-265.148917
 31
0.0
210
0.0
220
0.0
230
1.0
100
AcDbText
  0
TEXT
  5
4C7
100
AcDbEntity
  8
1
  6
CONTINUOUS
 62
     7
100
AcDbText
 10
367.954833
 20
-270.148917
 30
0.0
 40
2.0
  1
2
  7
TXT
 72
     4
 11
368.603333
 21
-269.148917
 31
0.0
210
0.0
220
0.0
230
1.0
100
AcDbText
  0
TEXT
  5
4C8
100
AcDbEntity
  8
1
  6
CONTINUOUS
 62
     7
100
AcDbText
 10
499.387833
 20
16.657833
 30
0.0
 40
2.5
  1
GENERAL NOTES
  7
MONOTXT
 72
     4
 11
514.811
 21
17.907833
 31
0.0
210
0.0
220
0.0
230
1.0
100
AcDbText
  0
LINE
  5
4C9
100
AcDbEntity
  8
1
  6
CONTINUOUS
 62
     7
100
AcDbLine
 10
497.49325
 20
14.759917
 30
0.0
 11
531.911417
 21
14.759917
 31
0.0
  0
TEXT
  5
4CA
100
AcDbEntity
  8
1
  6
CONTINUOUS
 62
     7
100
AcDbText
 10
435.753333
 20
3.515167
 30
0.0
 40
2.5
  1
1.   PUNCHING DETAILS
  7
MONOTXT
 11
435.753333
 21
6.015167
 31
0.0
210
0.0
220
0.0
230
1.0
100
AcDbText
 73
     3
  0
TEXT
  5
4CB
100
AcDbEntity
  8
1
  6
CONTINUOUS
 62
     7
100
AcDbText
 10
435.753333
 20
-0.984833
 30
0.0
 40
2.5
  1
 
  7
MONOTXT
 11
435.753333
 21
1.515167
 31
0.0
210
0.0
220
0.0
230
1.0
100
AcDbText
 73
     3
  0
TEXT
  5
4CC
100
AcDbEntity
  8
1
  6
CONTINUOUS
 62
     7
100
AcDbText
 10
435.753333
 20
-5.484833
 30
0.0
 40
2.5
  1
   1.1    THE SPACING OF THE PUNCHED HOLES WILL BE IN ACCORDANCE WITH THE
  7
MONOTXT
 11
435.753333
 21
-2.984833
 31
0.0
210
0.0
220
0.0
230
1.0
100
AcDbText
 73
     3
  0
TEXT
  5
4CD
100
AcDbEntity
  8
1
  6
CONTINUOUS
 62
     7
100
AcDbText
 10
435.753333
 20
-9.984833
 30
0.0
 40
2.5
  1
       ACCOMPANYING TABLE AND DETAILED DRAWINGS.
  7
MONOTXT
 11
435.753333
 21
-7.484833
 31
0.0
210
0.0
220
0.0
230
1.0
100
AcDbText
 73
     3
  0
TEXT
  5
4CE
100
AcDbEntity
  8
1
  6
CONTINUOUS
 62
     7
100
AcDbText
 10
435.753333
 20
-14.484833
 30
0.0
 40
2.5
  1
 
  7
MONOTXT
 11
435.753333
 21
-11.984833
 31
0.0
210
0.0
220
0.0
230
1.0
100
AcDbText
 73
     3
  0
TEXT
  5
4CF
100
AcDbEntity
  8
1
  6
CONTINUOUS
 62
     7
100
AcDbText
 10
435.753333
 20
-18.984833
 30
0.0
 40
2.5
  1
   1.2  ALL PUNCHED HOLES IN THE SIGNS SHALL BE  3/8 " DIAMETER, UNLESS OTHER-
  7
MONOTXT
 11
435.753333
 21
-16.484833
 31
0.0
210
0.0
220
0.0
230
1.0
100
AcDbText
 73
     3
  0
TEXT
  5
4D0
100
AcDbEntity
  8
1
  6
CONTINUOUS
 62
     7
100
AcDbText
 10
435.753333
 20
-23.484833
 30
0.0
 40
2.5
  1
       WISE SPECIFIED.
  7
MONOTXT
 11
435.753333
 21
-20.984833
 31
0.0
210
0.0
220
0.0
230
1.0
100
AcDbText
 73
     3
  0
TEXT
  5
4D1
100
AcDbEntity
  8
1
  6
CONTINUOUS
 62
     7
100
AcDbText
 10
435.753333
 20
-27.984833
 30
0.0
 40
2.5
  1
 
  7
MONOTXT
 11
435.753333
 21
-25.484833
 31
0.0
210
0.0
220
0.0
230
1.0
100
AcDbText
 73
     3
  0
TEXT
  5
4D2
100
AcDbEntity
  8
1
  6
CONTINUOUS
 62
     7
100
AcDbText
 10
435.753333
 20
-32.484833
 30
0.0
 40
2.5
  1
2.   MOUNTING DETAILS
  7
MONOTXT
 11
435.753333
 21
-29.984833
 31
0.0
210
0.0
220
0.0
230
1.0
100
AcDbText
 73
     3
  0
TEXT
  5
4D3
100
AcDbEntity
  8
1
  6
CONTINUOUS
 62
     7
100
AcDbText
 10
435.753333
 20
-36.984833
 30
0.0
 40
2.5
  1
 
  7
MONOTXT
 11
435.753333
 21
-34.484833
 31
0.0
210
0.0
220
0.0
230
1.0
100
AcDbText
 73
     3
  0
TEXT
  5
4D4
100
AcDbEntity
  8
1
  6
CONTINUOUS
 62
     7
100
AcDbText
 10
435.753333
 20
-41.484833
 30
0.0
 40
2.5
  1
   2.1   SIGNS IN THE SHAPE OF VERTICAL RECTANGLES WILL BE MOUNTED IN ACCOR-
  7
MONOTXT
 11
435.753333
 21
-38.984833
 31
0.0
210
0.0
220
0.0
230
1.0
100
AcDbText
 73
     3
  0
TEXT
  5
4D5
100
AcDbEntity
  8
1
  6
CONTINUOUS
 62
     7
100
AcDbText
 10
435.753333
 20
-45.984833
 30
0.0
 40
2.5
  1
       DANCE WITH THE ACCOMPANYING DETAILED DRAWINGS AND TP3-1. THE ASSOCI-
  7
MONOTXT
 11
435.753333
 21
-43.484833
 31
0.0
210
0.0
220
0.0
230
1.0
100
AcDbText
 73
     3
  0
TEXT
  5
4D6
100
AcDbEntity
  8
1
  6
CONTINUOUS
 62
     7
100
AcDbText
 10
435.753333
 20
-50.484833
 30
0.0
 40
2.5
  1
       ATED BOLTS, NUTS, WASHERS AND SHIMS SHALL BE INSTALLED IN ACCORDANCE
  7
MONOTXT
 11
435.753333
 21
-47.984833
 31
0.0
210
0.0
220
0.0
230
1.0
100
AcDbText
 73
     3
  0
TEXT
  5
4D7
100
AcDbEntity
  8
1
  6
CONTINUOUS
 62
     7
100
AcDbText
 10
435.753333
 20
-54.984833
 30
0.0
 40
2.5
  1
       WITH STANDARD DETAIL TP-A; SIGN ASSEMBLY BOLTING DETAILS.
  7
MONOTXT
 11
435.753333
 21
-52.484833
 31
0.0
210
0.0
220
0.0
230
1.0
100
AcDbText
 73
     3
  0
TEXT
  5
4D8
100
AcDbEntity
  8
1
  6
CONTINUOUS
 62
     7
100
AcDbText
 10
435.753333
 20
-59.484833
 30
0.0
 40
2.5
  1
 
  7
MONOTXT
 11
435.753333
 21
-56.984833
 31
0.0
210
0.0
220
0.0
230
1.0
100
AcDbText
 73
     3
  0
TEXT
  5
4D9
100
AcDbEntity
  8
1
  6
CONTINUOUS
 62
     7
100
AcDbText
 10
435.753333
 20
-63.984833
 30
0.0
 40
2.5
  1
   2.2 THE MOUNTING SHOWN FOR THESE SHAPED SIGNS ARE FOR SIGN ASSEMBLIES
  7
MONOTXT
 11
435.753333
 21
-61.484833
 31
0.0
210
0.0
220
0.0
230
1.0
100
AcDbText
 73
     3
  0
TEXT
  5
4DA
100
AcDbEntity
  8
1
  6
CONTINUOUS
 62
     7
100
AcDbText
 10
435.753333
 20
-68.484833
 30
0.0
 40
2.5
  1
       CONSISTING OF ONLY ONE SIGN.
  7
MONOTXT
 11
435.753333
 21
-65.984833
 31
0.0
210
0.0
220
0.0
230
1.0
100
AcDbText
 73
     3
  0
TEXT
  5
4DB
100
AcDbEntity
  8
1
  6
CONTINUOUS
 62
     7
100
AcDbText
 10
435.753333
 20
-72.984833
 30
0.0
 40
2.5
  1
 
  7
MONOTXT
 11
435.753333
 21
-70.484833
 31
0.0
210
0.0
220
0.0
230
1.0
100
AcDbText
 73
     3
  0
TEXT
  5
4DC
100
AcDbEntity
  8
1
  6
CONTINUOUS
 62
     7
100
AcDbText
 10
435.753333
 20
-77.484833
 30
0.0
 40
2.5
  1
   2.3 ALL BOLTS, NUTS AND WASHERS USED TO MOUNT THE SIGN AND SIGN ASSEM-
  7
MONOTXT
 11
435.753333
 21
-74.984833
 31
0.0
210
0.0
220
0.0
230
1.0
100
AcDbText
 73
     3
  0
TEXT
  5
4DD
100
AcDbEntity
  8
1
  6
CONTINUOUS
 62
     7
100
AcDbText
 10
435.753333
 20
-81.984833
 30
0.0
 40
2.5
  1
       BLY WILL BE  5/16 " DIAMETER.
  7
MONOTXT
 11
435.753333
 21
-79.484833
 31
0.0
210
0.0
220
0.0
230
1.0
100
AcDbText
 73
     3
  0
TEXT
  5
4DE
100
AcDbEntity
  8
1
  6
CONTINUOUS
 62
     7
100
AcDbText
 10
435.753333
 20
-86.484833
 30
0.0
 40
2.5
  1
 
  7
MONOTXT
 11
435.753333
 21
-83.984833
 31
0.0
210
0.0
220
0.0
230
1.0
100
AcDbText
 73
     3
  0
TEXT
  5
4DF
100
AcDbEntity
  8
1
  6
CONTINUOUS
 62
     7
100
AcDbText
 10
435.753333
 20
-90.984833
 30
0.0
 40
2.5
  1
   2.4 BRACING ON SIGNS SHOWN WILL CONSIST OF EXTRUDED RIB AS DETAILED ON
  7
MONOTXT
 11
435.753333
 21
-88.484833
 31
0.0
210
0.0
220
0.0
230
1.0
100
AcDbText
 73
     3
  0
TEXT
  5
4E0
100
AcDbEntity
  8
1
  6
CONTINUOUS
 62
     7
100
AcDbText
 10
435.753333
 20
-95.484833
 30
0.0
 40
2.5
  1
       TP-A.
  7
MONOTXT
 11
435.753333
 21
-92.984833
 31
0.0
210
0.0
220
0.0
230
1.0
100
AcDbText
 73
     3
  0
TEXT
  5
4E1
100
AcDbEntity
  8
1
  6
CONTINUOUS
 62
     7
100
AcDbText
 10
435.753333
 20
-99.984833
 30
0.0
 40
2.5
  1
 
  7
MONOTXT
 11
435.753333
 21
-97.484833
 31
0.0
210
0.0
220
0.0
230
1.0
100
AcDbText
 73
     3
  0
TEXT
  5
4E2
100
AcDbEntity
  8
1
  6
CONTINUOUS
 62
     7
100
AcDbText
 10
435.753333
 20
-104.484833
 30
0.0
 40
2.5
  1
       2.4.1   ON ALL BRACED SIGNS, THE WEB OF THE BRACING SHALL BE IN CONTACT
  7
MONOTXT
 11
435.753333
 21
-101.984833
 31
0.0
210
0.0
220
0.0
230
1.0
100
AcDbText
 73
     3
  0
TEXT
  5
4E3
100
AcDbEntity
  8
1
  6
CONTINUOUS
 62
     7
100
AcDbText
 10
435.753333
 20
-108.984833
 30
0.0
 40
2.5
  1
            WITH THE BACK OF THE SIGN.
  7
MONOTXT
 11
435.753333
 21
-106.484833
 31
0.0
210
0.0
220
0.0
230
1.0
100
AcDbText
 73
     3
  0
TEXT
  5
4E4
100
AcDbEntity
  8
1
  6
CONTINUOUS
 62
     7
100
AcDbText
 10
435.753333
 20
-113.484833
 30
0.0
 40
2.5
  1
 
  7
MONOTXT
 11
435.753333
 21
-110.984833
 31
0.0
210
0.0
220
0.0
230
1.0
100
AcDbText
 73
     3
  0
TEXT
  5
4E5
100
AcDbEntity
  8
1
  6
CONTINUOUS
 62
     7
100
AcDbText
 10
435.753333
 20
-117.984833
 30
0.0
 40
2.5
  1
       2.4.2 ON ALL BRACED SIGNS, THE FLANGE OF THE BRACING SHALL BE IN CON-
  7
MONOTXT
 11
435.753333
 21
-115.484833
 31
0.0
210
0.0
220
0.0
230
1.0
100
AcDbText
 73
     3
  0
TEXT
  5
4E6
100
AcDbEntity
  8
1
  6
CONTINUOUS
 62
     7
100
AcDbText
 10
435.753333
 20
-122.484833
 30
0.0
 40
2.5
  1
            TACT WITH THE FLANGE OF THE POST SUPPORT.
  7
MONOTXT
 11
435.753333
 21
-119.984833
 31
0.0
210
0.0
220
0.0
230
1.0
100
AcDbText
 73
     3
  0
TEXT
  5
4E7
100
AcDbEntity
  8
1
  6
CONTINUOUS
 62
     7
100
AcDbText
 10
435.753333
 20
-126.984833
 30
0.0
 40
2.5
  1
 
  7
MONOTXT
 11
435.753333
 21
-124.484833
 31
0.0
210
0.0
220
0.0
230
1.0
100
AcDbText
 73
     3
  0
TEXT
  5
4E8
100
AcDbEntity
  8
1
  6
CONTINUOUS
 62
     7
100
AcDbText
 10
435.753333
 20
-131.484833
 30
0.0
 40
2.5
  1
       2.4.3 ON ALL BRACED SIGNS, THE END OF THE OVERHANGING LENGTH OF THE
  7
MONOTXT
 11
435.753333
 21
-128.984833
 31
0.0
210
0.0
220
0.0
230
1.0
100
AcDbText
 73
     3
  0
TEXT
  5
4E9
100
AcDbEntity
  8
1
  6
CONTINUOUS
 62
     7
100
AcDbText
 10
435.753333
 20
-135.984833
 30
0.0
 40
2.5
  1
            BRACE SHALL BE AT LEAST 1-3/4" FROM THE CENTERLINE OF THE POST
  7
MONOTXT
 11
435.753333
 21
-133.484833
 31
0.0
210
0.0
220
0.0
230
1.0
100
AcDbText
 73
     3
  0
TEXT
  5
4EA
100
AcDbEntity
  8
1
  6
CONTINUOUS
 62
     7
100
AcDbText
 10
435.753333
 20
-140.484833
 30
0.0
 40
2.5
  1
            SUPPORT, BUT NO CLOSER THAN 1" TO THE EDGE OF THE SIGN. THE TWO
  7
MONOTXT
 11
435.753333
 21
-137.984833
 31
0.0
210
0.0
220
0.0
230
1.0
100
AcDbText
 73
     3
  0
TEXT
  5
4EB
100
AcDbEntity
  8
1
  6
CONTINUOUS
 62
     7
100
AcDbText
 10
435.753333
 20
-144.984833
 30
0.0
 40
2.5
  1
            OVERHANGING SECTIONS OF EACH BRACE SHALL BE EQUAL IN LENGTH.
  7
MONOTXT
 11
435.753333
 21
-142.484833
 31
0.0
210
0.0
220
0.0
230
1.0
100
AcDbText
 73
     3
  0
TEXT
  5
4EC
100
AcDbEntity
  8
1
  6
CONTINUOUS
 62
     7
100
AcDbText
 10
435.753333
 20
-149.484833
 30
0.0
 40
2.5
  1
 
  7
MONOTXT
 11
435.753333
 21
-146.984833
 31
0.0
210
0.0
220
0.0
230
1.0
100
AcDbText
 73
     3
  0
TEXT
  5
4ED
100
AcDbEntity
  8
1
  6
CONTINUOUS
 62
     7
100
AcDbText
 10
435.753333
 20
-153.984833
 30
0.0
 40
2.5
  1
       2.4.4 ON ALL BRACED SIGNS, THE CENTERLINE OF THE POST SHALL BE WITHIN 3"
  7
MONOTXT
 11
435.753333
 21
-151.484833
 31
0.0
210
0.0
220
0.0
230
1.0
100
AcDbText
 73
     3
  0
TEXT
  5
4EE
100
AcDbEntity
  8
1
  6
CONTINUOUS
 62
     7
100
AcDbText
 10
435.753333
 20
-158.484833
 30
0.0
 40
2.5
  1
            (ON EITHER SIDE) OF THE CENTERLINE OF THE SIGN HOLE.
  7
MONOTXT
 11
435.753333
 21
-155.984833
 31
0.0
210
0.0
220
0.0
230
1.0
100
AcDbText
 73
     3
  0
TEXT
  5
4EF
100
AcDbEntity
  8
1
  6
CONTINUOUS
 62
     7
100
AcDbText
 10
435.753333
 20
-162.984833
 30
0.0
 40
2.5
  1
 
  7
MONOTXT
 11
435.753333
 21
-160.484833
 31
0.0
210
0.0
220
0.0
230
1.0
100
AcDbText
 73
     3
  0
TEXT
  5
4F0
100
AcDbEntity
  8
1
  6
CONTINUOUS
 62
     7
100
AcDbText
 10
435.753333
 20
-167.484833
 30
0.0
 40
2.5
  1
   2.5  POST SUPPORT
  7
MONOTXT
 11
435.753333
 21
-164.984833
 31
0.0
210
0.0
220
0.0
230
1.0
100
AcDbText
 73
     3
  0
TEXT
  5
4F1
100
AcDbEntity
  8
1
  6
CONTINUOUS
 62
     7
100
AcDbText
 10
435.753333
 20
-171.984833
 30
0.0
 40
2.5
  1
 
  7
MONOTXT
 11
435.753333
 21
-169.484833
 31
0.0
210
0.0
220
0.0
230
1.0
100
AcDbText
 73
     3
  0
TEXT
  5
4F2
100
AcDbEntity
  8
1
  6
CONTINUOUS
 62
     7
100
AcDbText
 10
435.753333
 20
-176.484833
 30
0.0
 40
2.5
  1
       2.5.1   THE TOP OF THE POST SUPPORT SHALL NOT EXTEND BEYOND THE EDGE
  7
MONOTXT
 11
435.753333
 21
-173.984833
 31
0.0
210
0.0
220
0.0
230
1.0
100
AcDbText
 73
     3
  0
TEXT
  5
4F3
100
AcDbEntity
  8
1
  6
CONTINUOUS
 62
     7
100
AcDbText
 10
435.753333
 20
-180.984833
 30
0.0
 40
2.5
  1
            OF THE SIGN.
  7
MONOTXT
 11
435.753333
 21
-178.484833
 31
0.0
210
0.0
220
0.0
230
1.0
100
AcDbText
 73
     3
  0
TEXT
  5
4F4
100
AcDbEntity
  8
1
  6
CONTINUOUS
 62
     7
100
AcDbText
 10
435.753333
 20
-185.484833
 30
0.0
 40
2.5
  1
 
  7
MONOTXT
 11
435.753333
 21
-182.984833
 31
0.0
210
0.0
220
0.0
230
1.0
100
AcDbText
 73
     3
  0
TEXT
  5
4F5
100
AcDbEntity
  8
1
  6
CONTINUOUS
 62
     7
100
AcDbText
 10
435.753333
 20
-189.984833
 30
0.0
 40
2.5
  1
       2.5.2 THE TOP OF THE POST SUPPORT SHALL EXTEND 2" OR LESS FROM THE
  7
MONOTXT
 11
435.753333
 21
-187.484833
 31
0.0
210
0.0
220
0.0
230
1.0
100
AcDbText
 73
     3
  0
TEXT
  5
4F6
100
AcDbEntity
  8
1
  6
CONTINUOUS
 62
     7
100
AcDbText
 10
435.753333
 20
-194.484833
 30
0.0
 40
2.5
  1
            EDGE OF THE SIGN, BUT NOT BEYOND ANY EDGE OF THE SIGN.
  7
MONOTXT
 11
435.753333
 21
-191.984833
 31
0.0
210
0.0
220
0.0
230
1.0
100
AcDbText
 73
     3
  0
TEXT
  5
4F7
100
AcDbEntity
  8
1
  6
CONTINUOUS
 62
     7
100
AcDbText
 10
435.753333
 20
-198.984833
 30
0.0
 40
2.5
  1
 
  7
MONOTXT
 11
435.753333
 21
-196.484833
 31
0.0
210
0.0
220
0.0
230
1.0
100
AcDbText
 73
     3
  0
TEXT
  5
4F8
100
AcDbEntity
  8
1
  6
CONTINUOUS
 62
     7
100
AcDbText
 10
435.753333
 20
-203.484833
 30
0.0
 40
2.5
  1
3.   CORNER RADIUS FOR SIGN BLANK MATERIAL SHALL BE 1.5".
  7
MONOTXT
 11
435.753333
 21
-200.984833
 31
0.0
210
0.0
220
0.0
230
1.0
100
AcDbText
 73
     3
  0
LWPOLYLINE
  5
4F9
100
AcDbEntity
  8
1
  6
CONTINUOUS
 62
     7
100
AcDbPolyline
 90
        4
 70
     0
 10
454.588417
 20
-264.809833
 10
452.588417
 20
-268.273917
 10
456.588417
 20
-268.273917
 10
454.588417
 20
-264.809833
  0
LWPOLYLINE
  5
4FA
100
AcDbEntity
  8
1
  6
CONTINUOUS
 62
     7
100
AcDbPolyline
 90
        4
 70
     0
 10
454.588333
 20
-269.9675
 10
452.588333
 20
-273.431583
 10
456.588333
 20
-273.431583
 10
454.588333
 20
-269.9675
  0
TEXT
  5
4FB
100
AcDbEntity
  8
1
  6
CONTINUOUS
 62
     7
100
AcDbText
 10
454.01925
 20
-267.736083
 30
0.0
 40
1.5
  1
3
  7
MONOTXT
210
0.0
220
0.0
230
1.0
100
AcDbText
  0
TEXT
  5
4FC
100
AcDbEntity
  8
1
  6
CONTINUOUS
 62
     7
100
AcDbText
 10
454.075417
 20
-272.892417
 30
0.0
 40
1.5
  1
4
  7
MONOTXT
210
0.0
220
0.0
230
1.0
100
AcDbText
  0
TEXT
  5
4FD
100
AcDbEntity
  8
1
  6
CONTINUOUS
 62
     7
100
AcDbText
 10
458.2755
 20
-272.23125
 30
0.0
 40
1.5
  1
ADDED TP3-1 REFERENCE
  7
MONOTXT
210
0.0
220
0.0
230
1.0
100
AcDbText
  0
LWPOLYLINE
  5
4FE
100
AcDbEntity
  8
1
  6
CONTINUOUS
 62
     7
100
AcDbPolyline
 90
        4
 70
     0
 10
595.996
 20
-33.292917
 10
593.996
 20
-36.757
 10
597.996
 20
-36.757
 10
595.996
 20
-33.292917
  0
TEXT
  5
4FF
100
AcDbEntity
  8
1
  6
CONTINUOUS
 62
     7
100
AcDbText
 10
595.483083
 20
-36.217833
 30
0.0
 40
1.5
  1
4
  7
MONOTXT
210
0.0
220
0.0
230
1.0
100
AcDbText
  0
LWPOLYLINE
  5
500
100
AcDbEntity
  8
1
  6
CONTINUOUS
 62
     7
100
AcDbPolyline
 90
        4
 70
     0
 10
457.477833
 20
-336.697833
 10
455.477833
 20
-340.161917
 10
459.477833
 20
-340.161917
 10
457.477833
 20
-336.697833
  0
TEXT
  5
501
100
AcDbEntity
  8
1
  6
CONTINUOUS
 62
     7
100
AcDbText
 10
456.964917
 20
-339.62275
 30
0.0
 40
1.5
  1
3
  7
MONOTXT
210
0.0
220
0.0
230
1.0
100
AcDbText
  0
LWPOLYLINE
  5
502
100
AcDbEntity
  8
1
  6
CONTINUOUS
 62
     7
100
AcDbPolyline
 90
        4
 70
     0
 10
457.477833
 20
-341.238583
 10
455.477833
 20
-344.702667
 10
459.477833
 20
-344.702667
 10
457.477833
 20
-341.238583
  0
TEXT
  5
503
100
AcDbEntity
  8
1
  6
CONTINUOUS
 62
     7
100
AcDbText
 10
456.964917
 20
-344.1635
 30
0.0
 40
1.5
  1
4
  7
MONOTXT
210
0.0
220
0.0
230
1.0
100
AcDbText
  0
ENDSEC
  0
SECTION
  2
OBJECTS
  0
DICTIONARY
  5
19
100
AcDbDictionary
  3
ACAD_GROUP
350
1A
  3
ACAD_MLINESTYLE
350
1B
  0
DICTIONARY
  5
1A
102
{ACAD_REACTORS
330
19
102
}
100
AcDbDictionary
  0
DICTIONARY
  5
1B
102
{ACAD_REACTORS
330
19
102
}
100
AcDbDictionary
  3
STANDARD
350
1C
  0
MLINESTYLE
  5
1C
102
{ACAD_REACTORS
330
1B
102
}
100
AcDbMlineStyle
  2
STANDARD
 70
     0
  3

 62
     0
 51
90.0
 52
90.0
 71
     2
 49
0.5
 62
   256
  6
BYLAYER
 49
-0.5
 62
   256
  6
BYLAYER
  0
ENDSEC
  0
EOF
