  0
SECTION
  2
HEADER
  9
$ACADVER
  1
AC1014
  9
$ACADMAINTVER
 70
     0
  9
$DWGCODEPAGE
  3
ANSI_1252
  9
$INSBASE
 10
0.0
 20
0.0
 30
0.0
  9
$EXTMIN
 10
579.3263
 20
-326.528
 30
0.0
  9
$EXTMAX
 10
1370.9879
 20
194.2102
 30
0.0
  9
$LIMMIN
 10
0.0
 20
0.0
  9
$LIMMAX
 10
12.0
 20
9.0
  9
$ORTHOMODE
 70
     0
  9
$REGENMODE
 70
     1
  9
$FILLMODE
 70
     1
  9
$QTEXTMODE
 70
     0
  9
$MIRRTEXT
 70
     1
  9
$DRAGMODE
 70
     2
  9
$LTSCALE
 40
1.0
  9
$OSMODE
 70
     0
  9
$ATTMODE
 70
     1
  9
$TEXTSIZE
 40
0.2
  9
$TRACEWID
 40
0.05
  9
$TEXTSTYLE
  7
STANDARD
  9
$CLAYER
  8
0
  9
$CELTYPE
  6
CONTINUOUS
  9
$CECOLOR
 62
   256
  9
$CELTSCALE
 40
1.0
  9
$DELOBJ
 70
     1
  9
$DISPSILH
 70
     0
  9
$DIMSCALE
 40
1.0
  9
$DIMASZ
 40
0.18
  9
$DIMEXO
 40
0.0625
  9
$DIMDLI
 40
0.38
  9
$DIMRND
 40
0.0
  9
$DIMDLE
 40
0.0
  9
$DIMEXE
 40
0.18
  9
$DIMTP
 40
0.0
  9
$DIMTM
 40
0.0
  9
$DIMTXT
 40
0.18
  9
$DIMCEN
 40
0.09
  9
$DIMTSZ
 40
0.0
  9
$DIMTOL
 70
     0
  9
$DIMLIM
 70
     0
  9
$DIMTIH
 70
     1
  9
$DIMTOH
 70
     1
  9
$DIMSE1
 70
     0
  9
$DIMSE2
 70
     0
  9
$DIMTAD
 70
     0
  9
$DIMZIN
 70
     0
  9
$DIMBLK
  1

  9
$DIMASO
 70
     1
  9
$DIMSHO
 70
     1
  9
$DIMPOST
  1

  9
$DIMAPOST
  1

  9
$DIMALT
 70
     0
  9
$DIMALTD
 70
     2
  9
$DIMALTF
 40
25.4
  9
$DIMLFAC
 40
1.0
  9
$DIMTOFL
 70
     0
  9
$DIMTVP
 40
0.0
  9
$DIMTIX
 70
     0
  9
$DIMSOXD
 70
     0
  9
$DIMSAH
 70
     0
  9
$DIMBLK1
  1

  9
$DIMBLK2
  1

  9
$DIMSTYLE
  2
STANDARD
  9
$DIMCLRD
 70
     0
  9
$DIMCLRE
 70
     0
  9
$DIMCLRT
 70
     0
  9
$DIMTFAC
 40
1.0
  9
$DIMGAP
 40
0.09
  9
$DIMJUST
 70
     0
  9
$DIMSD1
 70
     0
  9
$DIMSD2
 70
     0
  9
$DIMTOLJ
 70
     1
  9
$DIMTZIN
 70
     0
  9
$DIMALTZ
 70
     0
  9
$DIMALTTZ
 70
     0
  9
$DIMFIT
 70
     3
  9
$DIMUPT
 70
     0
  9
$DIMUNIT
 70
     2
  9
$DIMDEC
 70
     4
  9
$DIMTDEC
 70
     4
  9
$DIMALTU
 70
     2
  9
$DIMALTTD
 70
     2
  9
$DIMTXSTY
  7
STANDARD
  9
$DIMAUNIT
 70
     0
  9
$LUNITS
 70
     2
  9
$LUPREC
 70
     4
  9
$SKETCHINC
 40
0.1
  9
$FILLETRAD
 40
0.0
  9
$AUNITS
 70
     0
  9
$AUPREC
 70
     0
  9
$MENU
  1
acad
  9
$ELEVATION
 40
0.0
  9
$PELEVATION
 40
0.0
  9
$THICKNESS
 40
0.0
  9
$LIMCHECK
 70
     0
  9
$BLIPMODE
 70
     1
  9
$CHAMFERA
 40
0.0
  9
$CHAMFERB
 40
0.0
  9
$CHAMFERC
 40
0.0
  9
$CHAMFERD
 40
0.0
  9
$SKPOLY
 70
     0
  9
$TDCREATE
 40
2451803.577650463
  9
$TDUPDATE
 40
2451803.577650463
  9
$TDINDWG
 40
0.0000000000
  9
$TDUSRTIMER
 40
0.0000000000
  9
$USRTIMER
 70
     1
  9
$ANGBASE
 50
0.0
  9
$ANGDIR
 70
     0
  9
$PDMODE
 70
     0
  9
$PDSIZE
 40
0.0
  9
$PLINEWID
 40
0.0
  9
$COORDS
 70
     0
  9
$SPLFRAME
 70
     0
  9
$SPLINETYPE
 70
     6
  9
$SPLINESEGS
 70
    10
  9
$ATTDIA
 70
     0
  9
$ATTREQ
 70
     1
  9
$HANDLING
 70
     1
  9
$HANDSEED
  5
401
  9
$SURFTAB1
 70
     6
  9
$SURFTAB2
 70
     6
  9
$SURFTYPE
 70
     6
  9
$SURFU
 70
     6
  9
$SURFV
 70
     6
  9
$UCSNAME
  2

  9
$UCSORG
 10
0.0
 20
0.0
 30
0.0
  9
$UCSXDIR
 10
1.0
 20
0.0
 30
0.0
  9
$UCSYDIR
 10
0.0
 20
1.0
 30
0.0
  9
$PUCSNAME
  2

  9
$PUCSORG
 10
0.0
 20
0.0
 30
0.0
  9
$PUCSXDIR
 10
1.0
 20
0.0
 30
0.0
  9
$PUCSYDIR
 10
0.0
 20
1.0
 30
0.0
  9
$USERI1
 70
     0
  9
$USERI2
 70
     0
  9
$USERI3
 70
     0
  9
$USERI4
 70
     0
  9
$USERI5
 70
     0
  9
$USERR1
 40
0.0
  9
$USERR2
 40
0.0
  9
$USERR3
 40
0.0
  9
$USERR4
 40
0.0
  9
$USERR5
 40
0.0
  9
$WORLDVIEW
 70
     1
  9
$SHADEDGE
 70
     3
  9
$SHADEDIF
 70
    70
  9
$TILEMODE
 70
     1
  9
$MAXACTVP
 70
    16
  9
$PINSBASE
 10
0.0
 20
0.0
 30
0.0
  9
$PLIMCHECK
 70
     0
  9
$PEXTMIN
 10
-1.000000E+20
 20
-1.000000E+20
 30
-1.000000E+20
  9
$PEXTMAX
 10
-1.000000E+20
 20
-1.000000E+20
 30
-1.000000E+20
  9
$PLIMMIN
 10
0.0
 20
0.0
  9
$PLIMMAX
 10
12.0
 20
9.0
  9
$UNITMODE
 70
     0
  9
$VISRETAIN
 70
     0
  9
$PLINEGEN
 70
     1
  9
$PSLTSCALE
 70
     0
  9
$TREEDEPTH
 70
  3020
  9
$PICKSTYLE
 70
     1
  9
$CMLSTYLE
  2
STANDARD
  9
$CMLJUST
 70
     0
  9
$CMLSCALE
 40
1.0
  9
$PROXYGRAPHICS
 70
     0
  9
$MEASUREMENT
 70
     0
  0
ENDSEC
  0
SECTION
  2
CLASSES
  0
CLASS
  1
LWPOLYLINE
  2
AcDbPolyline
  3
"AutoCAD"
 90
        0
280
     0
281
     1
  0
CLASS
  1
IMAGE
  2
AcDbRasterImage
  3
ISM
 90
      127
280
     0
281
     1
  0
CLASS
  1
OLE2FRAME
  2
AcDbOle2Frame
  3
""
 90
        0
280
     0
281
     1
  0
CLASS
  1
HATCH
  2
AcDbHatch
  3
"ACAD_SEDONA"
 90
        0
280
     0
281
     1
  0
CLASS
  1
DICTIONARYVAR
  2
AcDbDictionaryVar
  3
"AutoCAD"
 90
        0
280
     0
281
     0
  0
CLASS
  1
RASTERVARIABLES
  2
AcDbRasterVariables
  3
ISM
 90
        0
280
     0
281
     0
  0
CLASS
  1
IMAGEDEF
  2
AcDbRasterImageDef
  3
ISM
 90
        0
280
     0
281
     0
  0
CLASS
  1
IMAGEDEF_REACTOR
  2
AcDbRasterImageDefReactor
  3
ISM
 90
        1
280
     0
281
     0
  0
CLASS
  1
IDBUFFER
  2
AcDbIdBuffer
  3
"Acad"
 90
        0
280
     0
281
     0
  0
CLASS
  1
SPATIAL_FILTER
  2
AcDbSpatialFilter
  3
"Acad"
 90
        0
280
     0
281
     0
  0
CLASS
  1
XRECORD
  2
AcDbXrecord
  3
"<Built In>"
 90
        0
280
     0
281
     0
  0
CLASS
  1
SORTENTSTABLE
  2
AcDbSortentsTable
  3
"AutoCAD"
 90
        0
280
     0
281
     0
  0
CLASS
  1
LAYER_INDEX
  2
AcDbLayerIndex
  3
"Acad"
 90
        0
280
     0
281
     0
  0
CLASS
  1
SPATIAL_INDEX
  2
AcDbSpatialIndex
  3
"Acad"
 90
        0
280
     0
281
     0
  0
CLASS
  1
OBJECT_PTR
  2
CAseDLPNTableRecord
  3
"ASE-LPNTableRecord"
 90
        1
280
     0
281
     0
  0
ENDSEC
  0
SECTION
  2
TABLES
  0
TABLE
  2
VPORT
  5
7
100
AcDbSymbolTable
 70
     1
  0
VPORT
  5
400
100
AcDbSymbolTableRecord
100
AcDbViewportTableRecord
  2
*ACTIVE
 70
     0
 10
0.0
 20
0.0
 11
1.0
 21
1.0
 12
0.0
 22
0.0
 13
0.0
 23
0.0
 14
0.0
 24
0.0
 15
0.0
 25
0.0
 16
0.0
 26
0.0
 36
1.0
 17
925.1303
 27
-71.39
 37
0.0
 40
565.24
 41
1.545
 42
50.0
 43
0.0
 44
0.0
 50
0.0
 51
0.0
 71
     0
 72
   100
 73
     1
 74
     0
 75
     0
 76
     0
 77
     0
 78
     0
  0
ENDTAB
  0
TABLE
  2
LTYPE
  5
4
100
AcDbSymbolTable
 70
     9
  0
LTYPE
  5
11
100
AcDbSymbolTableRecord
100
AcDbLinetypeTableRecord
  2
BYBLOCK
 70
     0
  3

 72
    65
 73
     0
 40
0.0
  0
LTYPE
  5
12
100
AcDbSymbolTableRecord
100
AcDbLinetypeTableRecord
  2
BYLAYER
 70
     0
  3

 72
    65
 73
     0
 40
0.0
  0
LTYPE
  5
13
100
AcDbSymbolTableRecord
100
AcDbLinetypeTableRecord
  2
CONTINUOUS
 70
     0
  3
Solid line
 72
    65
 73
     0
 40
0.0
  0
LTYPE
  5
22
100
AcDbSymbolTableRecord
100
AcDbLinetypeTableRecord
  2
DOT
 70
    64
  3
. . . . . . . . . . . . . . . . . . . . . . . . . . . . . . . . .
 72
    65
 73
     2
 40
0.25
 49
0.0
 74
     0
 49
-0.25
 74
     0
  0
LTYPE
  5
23
100
AcDbSymbolTableRecord
100
AcDbLinetypeTableRecord
  2
HIDDEN
 70
    64
  3
__ __ __ __ __ __ __ __ __ __ __ __ __ __ __ __ __ __ __ __ __ 
 72
    65
 73
     2
 40
0.375
 49
0.25
 74
     0
 49
-0.125
 74
     0
  0
LTYPE
  5
24
100
AcDbSymbolTableRecord
100
AcDbLinetypeTableRecord
  2
DASHED
 70
    64
  3
__ __ __ __ __ __ __ __ __ __ __ __ __ __ __ __ __ __ __ __ __
 72
    65
 73
     2
 40
0.75
 49
0.5
 74
     0
 49
-0.25
 74
     0
  0
LTYPE
  5
25
100
AcDbSymbolTableRecord
100
AcDbLinetypeTableRecord
  2
DASHDOT
 70
    64
  3
__ . __ . __ . __ . __ . __ . __ . __ . __ . __ . __ . __ . _
 72
    65
 73
     4
 40
1.0
 49
0.5
 74
     0
 49
-0.25
 74
     0
 49
0.0
 74
     0
 49
-0.25
 74
     0
  0
LTYPE
  5
26
100
AcDbSymbolTableRecord
100
AcDbLinetypeTableRecord
  2
DIVIDE
 70
    64
  3
____ . . ____ . . ____ . . ____ . . ____ . . ____ . . ____ . .
 72
    65
 73
     6
 40
1.25
 49
0.5
 74
     0
 49
-0.25
 74
     0
 49
0.0
 74
     0
 49
-0.25
 74
     0
 49
0.0
 74
     0
 49
-0.25
 74
     0
  0
LTYPE
  5
27
100
AcDbSymbolTableRecord
100
AcDbLinetypeTableRecord
  2
CENTER
 70
    64
  3
____ _ ____ _ ____ _ ____ _ ____ _ ____ _ ____ _ ____ _ ____ _
 72
    65
 73
     4
 40
2.0
 49
1.25
 74
     0
 49
-0.25
 74
     0
 49
0.25
 74
     0
 49
-0.25
 74
     0
  0
ENDTAB
  0
TABLE
  2
LAYER
  5
2
100
AcDbSymbolTable
 70
     4
  0
LAYER
  5
14
102
{ACAD_XDICTIONARY
360
5F205F5F5F5F205F
102
}
100
AcDbSymbolTableRecord
100
AcDbLayerTableRecord
  2
0
 70
     0
 62
     7
  6
CONTINUOUS
  0
LAYER
  5
2A
102
{ACAD_XDICTIONARY
360
5F205F5F5F5F205F
102
}
100
AcDbSymbolTableRecord
100
AcDbLayerTableRecord
  2
1
 70
    64
 62
     7
  6
CONTINUOUS
  0
LAYER
  5
81
102
{ACAD_XDICTIONARY
360
5F205F5F5F5F205F
102
}
100
AcDbSymbolTableRecord
100
AcDbLayerTableRecord
  2
61
 70
    64
 62
     7
  6
CONTINUOUS
  0
LAYER
  5
B0
102
{ACAD_XDICTIONARY
360
5F205F5F5F5F205F
102
}
100
AcDbSymbolTableRecord
100
AcDbLayerTableRecord
  2
4
 70
    64
 62
     7
  6
CONTINUOUS
  0
ENDTAB
  0
TABLE
  2
STYLE
  5
3
100
AcDbSymbolTable
 70
     3
  0
STYLE
  5
17
100
AcDbSymbolTableRecord
100
AcDbTextStyleTableRecord
  2
STANDARD
 70
     0
 40
0.0
 41
1.0
 50
0.0
 71
     0
 42
0.0
  3
txt
  4

  0
STYLE
  5
2B
100
AcDbSymbolTableRecord
100
AcDbTextStyleTableRecord
  2
MONOTXT
 70
     0
 40
0.2
 41
1.0
 50
0.0
 71
     0
 42
0.2
  3
MONOTXT
  4

  0
STYLE
  5
24E
100
AcDbSymbolTableRecord
100
AcDbTextStyleTableRecord
  2
TXT
 70
     0
 40
0.2
 41
1.0
 50
0.0
 71
     0
 42
0.2
  3
TXT
  4

  0
ENDTAB
  0
TABLE
  2
VIEW
  5
5
100
AcDbSymbolTable
 70
     0
  0
ENDTAB
  0
TABLE
  2
UCS
  5
6
100
AcDbSymbolTable
 70
     0
  0
ENDTAB
  0
TABLE
  2
APPID
  5
8
100
AcDbSymbolTable
 70
     1
  0
APPID
  5
16
100
AcDbSymbolTableRecord
100
AcDbRegAppTableRecord
  2
ACAD
 70
     0
  0
ENDTAB
  0
TABLE
  2
DIMSTYLE
  5
9
100
AcDbSymbolTable
 70
     1
  0
DIMSTYLE
105
18
100
AcDbSymbolTableRecord
100
AcDbDimStyleTableRecord
  2
STANDARD
 70
     0
  3

  4

  5

  6

  7

 40
1.0
 41
0.18
 42
0.0625
 43
0.38
 44
0.18
 45
0.0
 46
0.0
 47
0.0
 48
0.0
140
0.18
141
0.09
142
0.0
143
25.4
144
1.0
145
0.0
146
1.0
147
0.09
 71
     0
 72
     0
 73
     1
 74
     1
 75
     0
 76
     0
 77
     0
 78
     0
170
     0
171
     2
172
     0
173
     0
174
     0
175
     0
176
     0
177
     0
178
     0
270
     2
271
     4
272
     4
273
     2
274
     2
340
17
275
     0
280
     0
281
     0
282
     0
283
     1
284
     0
285
     0
286
     0
287
     0
288
     0
  0
ENDTAB
  0
TABLE
  2
BLOCK_RECORD
  5
1
100
AcDbSymbolTable
 70
     5
  0
BLOCK_RECORD
  5
A
100
AcDbSymbolTableRecord
100
AcDbBlockTableRecord
  2
*MODEL_SPACE
  0
BLOCK_RECORD
  5
B
100
AcDbSymbolTableRecord
100
AcDbBlockTableRecord
  2
*PAPER_SPACE
  0
BLOCK_RECORD
  5
AD
102
{ACAD_XDICTIONARY
360
20B1022400000000
102
}
100
AcDbSymbolTableRecord
100
AcDbBlockTableRecord
  2
2SPT
  0
BLOCK_RECORD
  5
B8
102
{ACAD_XDICTIONARY
360
20B1022400000000
102
}
100
AcDbSymbolTableRecord
100
AcDbBlockTableRecord
  2
1SPT
  0
BLOCK_RECORD
  5
BE
102
{ACAD_XDICTIONARY
360
20B1022400000000
102
}
100
AcDbSymbolTableRecord
100
AcDbBlockTableRecord
  2
LDR
  0
BLOCK_RECORD
  5
CB
102
{ACAD_XDICTIONARY
360
20B1022400000000
102
}
100
AcDbSymbolTableRecord
100
AcDbBlockTableRecord
  2
ARO
  0
BLOCK_RECORD
  5
DD
102
{ACAD_XDICTIONARY
360
20B1022400000000
102
}
100
AcDbSymbolTableRecord
100
AcDbBlockTableRecord
  2
ADV
  0
ENDTAB
  0
ENDSEC
  0
SECTION
  2
BLOCKS
  0
BLOCK
  5
D
100
AcDbEntity
  8
0
100
AcDbBlockBegin
  2
*MODEL_SPACE
 70
     0
 10
0.0
 20
0.0
 30
0.0
  3
*MODEL_SPACE
  1

  0
ENDBLK
  5
E
100
AcDbEntity
  8
0
100
AcDbBlockEnd
  0
BLOCK
  5
F
100
AcDbEntity
 67
     1
  8
0
100
AcDbBlockBegin
  2
*PAPER_SPACE
 70
     0
 10
0.0
 20
0.0
 30
0.0
  3
*PAPER_SPACE
  1

  0
ENDBLK
  5
10
100
AcDbEntity
 67
     1
  8
0
100
AcDbBlockEnd
  0
BLOCK
  5
AE
100
AcDbEntity
  8
1
  6
CONTINUOUS
 62
     1
100
AcDbBlockBegin
  2
2SPT
 70
     0
 10
0.0
 20
0.0
 30
0.0
  3
2SPT
  1

  0
LINE
  5
AF
100
AcDbEntity
  8
1
  6
CONTINUOUS
 62
     1
100
AcDbLine
 10
-0.0121
 20
-0.0016
 30
0.0
 11
0.0134
 21
-0.0016
 31
0.0
  0
CIRCLE
  5
B1
100
AcDbEntity
  8
4
  6
CONTINUOUS
 62
     1
100
AcDbCircle
 10
0.005661
 20
0.000468
 30
0.0
 40
0.00205
210
0.0
220
0.0
230
1.0
  0
CIRCLE
  5
B2
100
AcDbEntity
  8
4
  6
CONTINUOUS
 62
     1
100
AcDbCircle
 10
-0.004623
 20
0.000467
 30
0.0
 40
0.00205
210
0.0
220
0.0
230
1.0
  0
ENDBLK
  5
B3
100
AcDbEntity
  8
4
  6
CONTINUOUS
 62
     1
100
AcDbBlockEnd
  0
BLOCK
  5
B9
100
AcDbEntity
  8
4
  6
CONTINUOUS
 62
     1
100
AcDbBlockBegin
  2
1SPT
 70
     0
 10
0.0
 20
0.0
 30
0.0
  3
1SPT
  1

  0
LINE
  5
BA
100
AcDbEntity
  8
4
  6
CONTINUOUS
 62
     1
100
AcDbLine
 10
-0.008
 20
-0.002
 30
0.0
 11
0.008
 21
-0.002
 31
0.0
  0
CIRCLE
  5
BB
100
AcDbEntity
  8
4
  6
CONTINUOUS
 62
     1
100
AcDbCircle
 10
0.0
 20
0.0
 30
0.0
 40
0.00205
210
0.0
220
0.0
230
1.0
  0
ENDBLK
  5
BC
100
AcDbEntity
  8
4
  6
CONTINUOUS
 62
     1
100
AcDbBlockEnd
  0
BLOCK
  5
BF
100
AcDbEntity
  8
1
  6
CONTINUOUS
 62
     1
100
AcDbBlockBegin
  2
LDR
 70
     0
 10
0.0
 20
0.0
 30
0.0
  3
LNR
  1

  0
ELLIPSE
  5
C0
100
AcDbEntity
  8
1
  6
CONTINUOUS
 62
     1
100
AcDbEllipse
 10
-0.005456
 20
-0.001382
 30
0.0
 11
0.008928500499167
 21
0.0007807500161896
 31
0.0
210
0.0
220
0.0
230
1.0
 40
0.122415
 41
0.8963533496766982
 42
3.1415926535897931
  0
ELLIPSE
  5
C1
100
AcDbEntity
  8
1
  6
CONTINUOUS
 62
     1
100
AcDbEllipse
 10
-0.005603
 20
0.001058
 30
0.0
 11
0.0087822506418525
 21
-0.0008782502084534
 31
0.0
210
0.0
220
0.0
230
1.0
 40
0.07063
 41
3.1407147529760402
 42
5.4181099545465106
  0
ENDBLK
  5
C2
100
AcDbEntity
  8
1
  6
CONTINUOUS
 62
     1
100
AcDbBlockEnd
  0
BLOCK
  5
CC
100
AcDbEntity
  8
1
  6
CONTINUOUS
 62
     1
100
AcDbBlockBegin
  2
ARO
 70
     0
 10
0.0
 20
0.0
 30
0.0
  3
ARO
  1

  0
POLYLINE
  5
CD
100
AcDbEntity
  8
1
  6
CONTINUOUS
 62
     1
100
AcDb2dPolyline
 66
     1
 10
0.0
 20
0.0
 30
0.0
 70
     1
  0
VERTEX
  5
CE
100
AcDbEntity
  8
1
  6
CONTINUOUS
 62
     1
100
AcDbVertex
100
AcDb2dVertex
 10
0.0
 20
0.0
 30
0.0
  0
VERTEX
  5
CF
100
AcDbEntity
  8
1
  6
CONTINUOUS
 62
     1
100
AcDbVertex
100
AcDb2dVertex
 10
-0.0222
 20
0.0098
 30
0.0
  0
VERTEX
  5
D0
100
AcDbEntity
  8
1
  6
CONTINUOUS
 62
     1
100
AcDbVertex
100
AcDb2dVertex
 10
-0.0222
 20
0.004
 30
0.0
  0
VERTEX
  5
D1
100
AcDbEntity
  8
1
  6
CONTINUOUS
 62
     1
100
AcDbVertex
100
AcDb2dVertex
 10
-0.0714
 20
0.004
 30
0.0
  0
VERTEX
  5
D2
100
AcDbEntity
  8
1
  6
CONTINUOUS
 62
     1
100
AcDbVertex
100
AcDb2dVertex
 10
-0.0714
 20
0.0038
 30
0.0
  0
VERTEX
  5
D3
100
AcDbEntity
  8
1
  6
CONTINUOUS
 62
     1
100
AcDbVertex
100
AcDb2dVertex
 10
-0.0714
 20
-0.0042
 30
0.0
  0
VERTEX
  5
D4
100
AcDbEntity
  8
1
  6
CONTINUOUS
 62
     1
100
AcDbVertex
100
AcDb2dVertex
 10
-0.0222
 20
-0.0042
 30
0.0
  0
VERTEX
  5
D5
100
AcDbEntity
  8
1
  6
CONTINUOUS
 62
     1
100
AcDbVertex
100
AcDb2dVertex
 10
-0.0222
 20
-0.0101
 30
0.0
  0
VERTEX
  5
D6
100
AcDbEntity
  8
1
  6
CONTINUOUS
 62
     1
100
AcDbVertex
100
AcDb2dVertex
 10
0.0
 20
0.0
 30
0.0
  0
SEQEND
  5
D7
100
AcDbEntity
  8
1
  6
CONTINUOUS
 62
     1
  0
ENDBLK
  5
D8
100
AcDbEntity
  8
1
  6
CONTINUOUS
 62
     1
100
AcDbBlockEnd
  0
BLOCK
  5
DE
100
AcDbEntity
  8
1
  6
CONTINUOUS
 62
     1
100
AcDbBlockBegin
  2
ADV
 70
     0
 10
0.0
 20
0.0
 30
0.0
  3
ANV
  1

  0
POLYLINE
  5
DF
100
AcDbEntity
  8
1
  6
CONTINUOUS
 62
     1
100
AcDb2dPolyline
 66
     1
 10
0.0
 20
0.0
 30
0.0
 70
     1
  0
VERTEX
  5
E0
100
AcDbEntity
  8
1
  6
CONTINUOUS
 62
     1
100
AcDbVertex
100
AcDb2dVertex
 10
-0.0177
 20
0.0353
 30
0.0
  0
VERTEX
  5
E1
100
AcDbEntity
  8
1
  6
CONTINUOUS
 62
     1
100
AcDbVertex
100
AcDb2dVertex
 10
-0.0101
 20
0.0186
 30
0.0
  0
VERTEX
  5
E2
100
AcDbEntity
  8
1
  6
CONTINUOUS
 62
     1
100
AcDbVertex
100
AcDb2dVertex
 10
-0.0145
 20
0.0186
 30
0.0
  0
VERTEX
  5
E3
100
AcDbEntity
  8
1
  6
CONTINUOUS
 62
     1
100
AcDbVertex
100
AcDb2dVertex
 10
-0.0145
 20
0.0062
 30
0.0
  0
VERTEX
  5
E4
100
AcDbEntity
  8
1
  6
CONTINUOUS
 62
     1
100
AcDbVertex
100
AcDb2dVertex
 10
0.0
 20
0.0062
 30
0.0
  0
VERTEX
  5
E5
100
AcDbEntity
  8
1
  6
CONTINUOUS
 62
     1
100
AcDbVertex
100
AcDb2dVertex
 10
0.0
 20
0.0
 30
0.0
  0
VERTEX
  5
E6
100
AcDbEntity
  8
1
  6
CONTINUOUS
 62
     1
100
AcDbVertex
100
AcDb2dVertex
 10
-0.0207
 20
0.0
 30
0.0
  0
VERTEX
  5
E7
100
AcDbEntity
  8
1
  6
CONTINUOUS
 62
     1
100
AcDbVertex
100
AcDb2dVertex
 10
-0.0207
 20
0.0186
 30
0.0
  0
VERTEX
  5
E8
100
AcDbEntity
  8
1
  6
CONTINUOUS
 62
     1
100
AcDbVertex
100
AcDb2dVertex
 10
-0.0251
 20
0.0186
 30
0.0
  0
VERTEX
  5
E9
100
AcDbEntity
  8
1
  6
CONTINUOUS
 62
     1
100
AcDbVertex
100
AcDb2dVertex
 10
-0.0177
 20
0.0353
 30
0.0
  0
SEQEND
  5
EA
100
AcDbEntity
  8
1
  6
CONTINUOUS
 62
     1
  0
ENDBLK
  5
EB
100
AcDbEntity
  8
1
  6
CONTINUOUS
 62
     1
100
AcDbBlockEnd
  0
ENDSEC
  0
SECTION
  2
ENTITIES
  0
TEXT
  5
2C
100
AcDbEntity
  8
1
  6
CONTINUOUS
 62
     1
100
AcDbText
 10
1165.3444
 20
-284.4031
 30
0.0
 40
2.400048
  1
05-01-70
  7
MONOTXT
 72
     1
 11
1173.565
 21
-282.0031
 31
0.0
210
0.0
220
0.0
230
1.0
100
AcDbText
 73
     3
  0
TEXT
  5
2D
100
AcDbEntity
  8
1
  6
CONTINUOUS
 62
     1
100
AcDbText
 10
1165.4092
 20
-290.3935
 30
0.0
 40
2.400048
  1
01-28-73
  7
MONOTXT
 72
     1
 11
1173.6392
 21
-287.9935
 31
0.0
210
0.0
220
0.0
230
1.0
100
AcDbText
 73
     3
  0
TEXT
  5
2E
100
AcDbEntity
  8
1
  6
CONTINUOUS
 62
     1
100
AcDbText
 10
1166.444
 20
-296.1174
 30
0.0
 40
2.400048
  1
11-03-76
  7
MONOTXT
 72
     1
 11
1174.1071
 21
-293.7174
 31
0.0
210
0.0
220
0.0
230
1.0
100
AcDbText
 73
     3
  0
TEXT
  5
2F
100
AcDbEntity
  8
1
  6
CONTINUOUS
 62
     1
100
AcDbText
 10
1165.2969
 20
-301.7527
 30
0.0
 40
2.400048
  1
09-30-84
  7
MONOTXT
 72
     1
 11
1174.0183
 21
-299.3527
 31
0.0
210
0.0
220
0.0
230
1.0
100
AcDbText
 73
     3
  0
TEXT
  5
30
100
AcDbEntity
  8
1
  6
CONTINUOUS
 62
     1
100
AcDbText
 10
1164.6136
 20
-307.3615
 30
0.0
 40
2.400048
  1
        
  7
MONOTXT
 72
     1
 11
1173.8138
 21
-304.9615
 31
0.0
210
0.0
220
0.0
230
1.0
100
AcDbText
 73
     3
  0
TEXT
  5
31
100
AcDbEntity
  8
1
  6
CONTINUOUS
 62
     1
100
AcDbText
 10
1164.3617
 20
-305.7223
 30
0.0
 40
2.400048
  1
        
  7
MONOTXT
 72
     1
 11
1173.5619
 21
-303.3223
 31
0.0
210
0.0
220
0.0
230
1.0
100
AcDbText
 73
     3
  0
TEXT
  5
32
100
AcDbEntity
  8
1
  6
CONTINUOUS
 62
     1
100
AcDbText
 10
1164.2417
 20
-311.2423
 30
0.0
 40
2.400048
  1
        
  7
MONOTXT
 72
     1
 11
1173.4419
 21
-308.8423
 31
0.0
210
0.0
220
0.0
230
1.0
100
AcDbText
 73
     3
  0
TEXT
  5
33
100
AcDbEntity
  8
1
  6
CONTINUOUS
 62
     1
100
AcDbText
 10
1164.3617
 20
-316.7383
 30
0.0
 40
2.400048
  1
        
  7
MONOTXT
 72
     1
 11
1173.5619
 21
-314.3383
 31
0.0
210
0.0
220
0.0
230
1.0
100
AcDbText
 73
     3
  0
TEXT
  5
34
100
AcDbEntity
  8
1
  6
CONTINUOUS
 62
     1
100
AcDbText
 10
1164.3617
 20
-321.5623
 30
0.0
 40
2.400048
  1
        
  7
MONOTXT
 72
     1
 11
1173.5619
 21
-319.1623
 31
0.0
210
0.0
220
0.0
230
1.0
100
AcDbText
 73
     3
  0
ARC
  5
35
100
AcDbEntity
  8
1
  6
CONTINUOUS
 62
     1
100
AcDbCircle
 10
695.201019
 20
25.095756
 30
0.0
 40
100.663627
210
0.0
220
0.0
230
1.0
100
AcDbArc
 50
120.660542
 51
138.687233
  0
ARC
  5
36
100
AcDbEntity
  8
1
  6
CONTINUOUS
 62
     1
100
AcDbCircle
 10
674.762082
 20
62.316091
 30
0.0
 40
58.240529
210
0.0
220
0.0
230
1.0
100
AcDbArc
 50
57.963158
 51
122.036839
  0
ARC
  5
37
100
AcDbEntity
  8
1
  6
CONTINUOUS
 62
     1
100
AcDbCircle
 10
654.323442
 20
25.095756
 30
0.0
 40
100.663627
210
0.0
220
0.0
230
1.0
100
AcDbArc
 50
41.312767
 51
59.339458
  0
ARC
  5
38
100
AcDbEntity
  8
1
  6
CONTINUOUS
 62
     1
100
AcDbCircle
 10
744.781745
 20
-17.339548
 30
0.0
 40
165.921249
210
0.0
220
0.0
230
1.0
100
AcDbArc
 50
138.983447
 51
152.079806
  0
ARC
  5
39
100
AcDbEntity
  8
1
  6
CONTINUOUS
 62
     1
100
AcDbCircle
 10
604.742716
 20
-17.339548
 30
0.0
 40
165.921249
210
0.0
220
0.0
230
1.0
100
AcDbArc
 50
27.920197
 51
41.016553
  0
ARC
  5
3A
100
AcDbEntity
  8
1
  6
CONTINUOUS
 62
     1
100
AcDbCircle
 10
744.781745
 20
-17.339548
 30
0.0
 40
156.986499
210
0.0
220
0.0
230
1.0
100
AcDbArc
 50
138.983447
 51
152.079806
  0
ARC
  5
3B
100
AcDbEntity
  8
1
  6
CONTINUOUS
 62
     1
100
AcDbCircle
 10
695.201019
 20
25.095756
 30
0.0
 40
91.728877
210
0.0
220
0.0
230
1.0
100
AcDbArc
 50
120.660542
 51
138.687233
  0
ARC
  5
3C
100
AcDbEntity
  8
1
  6
CONTINUOUS
 62
     1
100
AcDbCircle
 10
674.762082
 20
62.316091
 30
0.0
 40
49.305779
210
0.0
220
0.0
230
1.0
100
AcDbArc
 50
57.963158
 51
122.286247
  0
ARC
  5
3D
100
AcDbEntity
  8
1
  6
CONTINUOUS
 62
     1
100
AcDbCircle
 10
654.323442
 20
25.095756
 30
0.0
 40
91.728877
210
0.0
220
0.0
230
1.0
100
AcDbArc
 50
41.312767
 51
59.339458
  0
ARC
  5
3E
100
AcDbEntity
  8
1
  6
CONTINUOUS
 62
     1
100
AcDbCircle
 10
604.742716
 20
-17.339548
 30
0.0
 40
156.986499
210
0.0
220
0.0
230
1.0
100
AcDbArc
 50
27.920197
 51
41.016553
  0
ARC
  5
3F
100
AcDbEntity
  8
1
  6
DASHED
 62
     1
100
AcDbCircle
 10
744.781745
 20
-17.339548
 30
0.0
 40
161.751699
210
0.0
220
0.0
230
1.0
100
AcDbArc
 50
138.983447
 51
152.079806
  0
ARC
  5
40
100
AcDbEntity
  8
1
  6
CONTINUOUS
 62
     1
100
AcDbCircle
 10
744.781745
 20
-17.339548
 30
0.0
 40
161.156049
210
0.0
220
0.0
230
1.0
100
AcDbArc
 50
138.983447
 51
152.079806
  0
ARC
  5
41
100
AcDbEntity
  8
1
  6
CONTINUOUS
 62
     1
100
AcDbCircle
 10
695.201019
 20
25.095756
 30
0.0
 40
96.494077
210
0.0
220
0.0
230
1.0
100
AcDbArc
 50
120.660542
 51
138.687233
  0
ARC
  5
42
100
AcDbEntity
  8
1
  6
CONTINUOUS
 62
     1
100
AcDbCircle
 10
695.201019
 20
25.095756
 30
0.0
 40
95.898427
210
0.0
220
0.0
230
1.0
100
AcDbArc
 50
120.660542
 51
138.687233
  0
ARC
  5
43
100
AcDbEntity
  8
1
  6
CONTINUOUS
 62
     1
100
AcDbCircle
 10
674.762082
 20
62.316091
 30
0.0
 40
54.070979
210
0.0
220
0.0
230
1.0
100
AcDbArc
 50
57.963158
 51
122.142992
  0
ARC
  5
44
100
AcDbEntity
  8
1
  6
CONTINUOUS
 62
     1
100
AcDbCircle
 10
674.762082
 20
62.316091
 30
0.0
 40
53.475329
210
0.0
220
0.0
230
1.0
100
AcDbArc
 50
57.963158
 51
122.159442
  0
ARC
  5
45
100
AcDbEntity
  8
1
  6
CONTINUOUS
 62
     1
100
AcDbCircle
 10
654.323442
 20
25.095756
 30
0.0
 40
96.494077
210
0.0
220
0.0
230
1.0
100
AcDbArc
 50
41.312767
 51
59.339458
  0
ARC
  5
46
100
AcDbEntity
  8
1
  6
CONTINUOUS
 62
     1
100
AcDbCircle
 10
654.323442
 20
25.095756
 30
0.0
 40
95.898427
210
0.0
220
0.0
230
1.0
100
AcDbArc
 50
41.312767
 51
59.339458
  0
ARC
  5
47
100
AcDbEntity
  8
1
  6
CONTINUOUS
 62
     1
100
AcDbCircle
 10
604.742716
 20
-17.339548
 30
0.0
 40
161.751699
210
0.0
220
0.0
230
1.0
100
AcDbArc
 50
27.920197
 51
41.016553
  0
ARC
  5
48
100
AcDbEntity
  8
1
  6
DASHED
 62
     1
100
AcDbCircle
 10
604.742716
 20
-17.339548
 30
0.0
 40
161.156049
210
0.0
220
0.0
230
1.0
100
AcDbArc
 50
27.920197
 51
41.016553
  0
ARC
  5
49
100
AcDbEntity
  8
1
  6
CONTINUOUS
 62
     1
100
AcDbCircle
 10
761.282913
 20
-398.14338
 30
0.0
 40
552.411324
210
0.0
220
0.0
230
1.0
100
AcDbArc
 50
82.156922
 51
87.102253
  0
ARC
  5
4A
100
AcDbEntity
  8
1
  6
CONTINUOUS
 62
     1
100
AcDbCircle
 10
829.834451
 20
102.660944
 30
0.0
 40
46.939157
210
0.0
220
0.0
230
1.0
100
AcDbArc
 50
11.997847
 51
81.632453
  0
ARC
  5
4B
100
AcDbEntity
  8
1
  6
CONTINUOUS
 62
     1
100
AcDbCircle
 10
499.389912
 20
11.022543
 30
0.0
 40
389.777777
210
0.0
220
0.0
230
1.0
100
AcDbArc
 50
11.832761
 51
15.078231
  0
ARC
  5
4C
100
AcDbEntity
  8
1
  6
CONTINUOUS
 62
     1
100
AcDbCircle
 10
1000.487144
 20
580.040798
 30
0.0
 40
552.411324
210
0.0
220
0.0
230
1.0
100
AcDbArc
 50
262.156922
 51
266.834092
  0
ARC
  5
4D
100
AcDbEntity
  8
1
  6
CONTINUOUS
 62
     1
100
AcDbCircle
 10
931.935606
 20
79.236473
 30
0.0
 40
46.939157
210
0.0
220
0.0
230
1.0
100
AcDbArc
 50
191.997847
 51
261.632453
  0
ARC
  5
4E
100
AcDbEntity
  8
1
  6
CONTINUOUS
 62
     1
100
AcDbCircle
 10
1262.380145
 20
170.874874
 30
0.0
 40
389.777777
210
0.0
220
0.0
230
1.0
100
AcDbArc
 50
191.832761
 51
195.078231
  0
ARC
  5
4F
100
AcDbEntity
  8
1
  6
CONTINUOUS
 62
     1
100
AcDbCircle
 10
761.282913
 20
-398.14338
 30
0.0
 40
543.476574
210
0.0
220
0.0
230
1.0
100
AcDbArc
 50
82.156922
 51
87.102258
  0
ARC
  5
50
100
AcDbEntity
  8
1
  6
CONTINUOUS
 62
     1
100
AcDbCircle
 10
829.834451
 20
102.660944
 30
0.0
 40
38.004407
210
0.0
220
0.0
230
1.0
100
AcDbArc
 50
11.274331
 51
81.632453
  0
ARC
  5
51
100
AcDbEntity
  8
1
  6
CONTINUOUS
 62
     1
100
AcDbCircle
 10
499.389912
 20
11.022543
 30
0.0
 40
380.843027
210
0.0
220
0.0
230
1.0
100
AcDbArc
 50
11.832761
 51
15.078231
  0
ARC
  5
52
100
AcDbEntity
  8
1
  6
CONTINUOUS
 62
     1
100
AcDbCircle
 10
1262.380145
 20
170.874874
 30
0.0
 40
398.712527
210
0.0
220
0.0
230
1.0
100
AcDbArc
 50
191.832761
 51
195.078231
  0
ARC
  5
53
100
AcDbEntity
  8
1
  6
CONTINUOUS
 62
     1
100
AcDbCircle
 10
931.935606
 20
79.236473
 30
0.0
 40
55.873907
210
0.0
220
0.0
230
1.0
100
AcDbArc
 50
191.997847
 51
261.632453
  0
ARC
  5
54
100
AcDbEntity
  8
1
  6
CONTINUOUS
 62
     1
100
AcDbCircle
 10
1000.487144
 20
580.040798
 30
0.0
 40
561.346074
210
0.0
220
0.0
230
1.0
100
AcDbArc
 50
262.156922
 51
266.834089
  0
ARC
  5
55
100
AcDbEntity
  8
1
  6
DASHED
 62
     1
100
AcDbCircle
 10
761.282913
 20
-398.14338
 30
0.0
 40
548.241774
210
0.0
220
0.0
230
1.0
100
AcDbArc
 50
82.156922
 51
87.102256
  0
ARC
  5
56
100
AcDbEntity
  8
1
  6
CONTINUOUS
 62
     1
100
AcDbCircle
 10
761.282913
 20
-398.14338
 30
0.0
 40
547.646124
210
0.0
220
0.0
230
1.0
100
AcDbArc
 50
82.156922
 51
87.102256
  0
ARC
  5
57
100
AcDbEntity
  8
1
  6
CONTINUOUS
 62
     1
100
AcDbCircle
 10
829.834451
 20
102.660944
 30
0.0
 40
42.769607
210
0.0
220
0.0
230
1.0
100
AcDbArc
 50
11.697703
 51
81.632453
  0
ARC
  5
58
100
AcDbEntity
  8
1
  6
CONTINUOUS
 62
     1
100
AcDbCircle
 10
829.834451
 20
102.660944
 30
0.0
 40
42.173957
210
0.0
220
0.0
230
1.0
100
AcDbArc
 50
11.649961
 51
81.632453
  0
ARC
  5
59
100
AcDbEntity
  8
1
  6
CONTINUOUS
 62
     1
100
AcDbCircle
 10
499.389912
 20
11.022543
 30
0.0
 40
385.608227
210
0.0
220
0.0
230
1.0
100
AcDbArc
 50
11.832761
 51
15.078231
  0
ARC
  5
5A
100
AcDbEntity
  8
1
  6
CONTINUOUS
 62
     1
100
AcDbCircle
 10
499.389912
 20
11.022543
 30
0.0
 40
385.012577
210
0.0
220
0.0
230
1.0
100
AcDbArc
 50
11.832761
 51
15.078231
  0
ARC
  5
5B
100
AcDbEntity
  8
1
  6
CONTINUOUS
 62
     1
100
AcDbCircle
 10
1262.380145
 20
170.874874
 30
0.0
 40
393.947327
210
0.0
220
0.0
230
1.0
100
AcDbArc
 50
191.832761
 51
195.078231
  0
ARC
  5
5C
100
AcDbEntity
  8
1
  6
CONTINUOUS
 62
     1
100
AcDbCircle
 10
1262.380145
 20
170.874874
 30
0.0
 40
394.542977
210
0.0
220
0.0
230
1.0
100
AcDbArc
 50
191.832761
 51
195.078231
  0
ARC
  5
5D
100
AcDbEntity
  8
1
  6
CONTINUOUS
 62
     1
100
AcDbCircle
 10
931.935606
 20
79.236473
 30
0.0
 40
51.108707
210
0.0
220
0.0
230
1.0
100
AcDbArc
 50
191.997847
 51
261.632453
  0
ARC
  5
5E
100
AcDbEntity
  8
1
  6
CONTINUOUS
 62
     1
100
AcDbCircle
 10
931.935606
 20
79.236473
 30
0.0
 40
51.704357
210
0.0
220
0.0
230
1.0
100
AcDbArc
 50
191.997847
 51
261.632453
  0
ARC
  5
5F
100
AcDbEntity
  8
1
  6
CONTINUOUS
 62
     1
100
AcDbCircle
 10
1000.487144
 20
580.040798
 30
0.0
 40
556.580874
210
0.0
220
0.0
230
1.0
100
AcDbArc
 50
262.156922
 51
266.834092
  0
ARC
  5
60
100
AcDbEntity
  8
1
  6
DASHED
 62
     1
100
AcDbCircle
 10
1000.487144
 20
580.040798
 30
0.0
 40
557.176524
210
0.0
220
0.0
230
1.0
100
AcDbArc
 50
262.156922
 51
266.834092
  0
ARC
  5
61
100
AcDbEntity
  8
1
  6
CONTINUOUS
 62
     1
100
AcDbCircle
 10
948.219981
 20
-412.332076
 30
0.0
 40
552.411324
210
0.0
220
0.0
230
1.0
100
AcDbArc
 50
82.156922
 51
86.461169
  0
ARC
  5
62
100
AcDbEntity
  8
1
  6
CONTINUOUS
 62
     1
100
AcDbCircle
 10
948.219981
 20
-412.332076
 30
0.0
 40
543.476574
210
0.0
220
0.0
230
1.0
100
AcDbArc
 50
82.156922
 51
86.461167
  0
ARC
  5
63
100
AcDbEntity
  8
1
  6
DASHED
 62
     1
100
AcDbCircle
 10
948.219981
 20
-412.332076
 30
0.0
 40
548.241774
210
0.0
220
0.0
230
1.0
100
AcDbArc
 50
82.156922
 51
86.461167
  0
ARC
  5
64
100
AcDbEntity
  8
1
  6
CONTINUOUS
 62
     1
100
AcDbCircle
 10
948.219981
 20
-412.332076
 30
0.0
 40
547.646124
210
0.0
220
0.0
230
1.0
100
AcDbArc
 50
82.156922
 51
86.461167
  0
ARC
  5
65
100
AcDbEntity
  8
1
  6
CONTINUOUS
 62
     1
100
AcDbCircle
 10
1011.909375
 20
63.409257
 30
0.0
 40
72.452241
210
0.0
220
0.0
230
1.0
100
AcDbArc
 50
39.5398
 51
80.712583
  0
ARC
  5
66
100
AcDbEntity
  8
1
  6
CONTINUOUS
 62
     1
100
AcDbCircle
 10
1127.7698
 20
167.571007
 30
0.0
 40
83.467058
210
0.0
220
0.0
230
1.0
100
AcDbArc
 50
224.053983
 51
262.994756
  0
ARC
  5
67
100
AcDbEntity
  8
1
  6
CONTINUOUS
 62
     1
100
AcDbCircle
 10
1130.548004
 20
172.187228
 30
0.0
 40
88.414887
210
0.0
220
0.0
230
1.0
100
AcDbArc
 50
261.572522
 51
291.229478
  0
ARC
  5
68
100
AcDbEntity
  8
1
  6
CONTINUOUS
 62
     1
100
AcDbCircle
 10
1011.909375
 20
63.409257
 30
0.0
 40
63.517491
210
0.0
220
0.0
230
1.0
100
AcDbArc
 50
38.950344
 51
80.712583
  0
ARC
  5
69
100
AcDbEntity
  8
1
  6
CONTINUOUS
 62
     1
100
AcDbCircle
 10
1127.7698
 20
167.571007
 30
0.0
 40
92.401808
210
0.0
220
0.0
230
1.0
100
AcDbArc
 50
224.053983
 51
262.994756
  0
ARC
  5
6A
100
AcDbEntity
  8
1
  6
CONTINUOUS
 62
     1
100
AcDbCircle
 10
1130.548004
 20
172.187228
 30
0.0
 40
97.349637
210
0.0
220
0.0
230
1.0
100
AcDbArc
 50
261.572522
 51
291.229478
  0
ARC
  5
6B
100
AcDbEntity
  8
1
  6
CONTINUOUS
 62
     1
100
AcDbCircle
 10
1011.909375
 20
63.409257
 30
0.0
 40
68.282691
210
0.0
220
0.0
230
1.0
100
AcDbArc
 50
39.264506
 51
80.712583
  0
ARC
  5
6C
100
AcDbEntity
  8
1
  6
CONTINUOUS
 62
     1
100
AcDbCircle
 10
1011.909375
 20
63.409257
 30
0.0
 40
67.687041
210
0.0
220
0.0
230
1.0
100
AcDbArc
 50
39.222414
 51
80.712583
  0
ARC
  5
6D
100
AcDbEntity
  8
1
  6
CONTINUOUS
 62
     1
100
AcDbCircle
 10
1127.7698
 20
167.571007
 30
0.0
 40
87.636608
210
0.0
220
0.0
230
1.0
100
AcDbArc
 50
224.053983
 51
262.994756
  0
ARC
  5
6E
100
AcDbEntity
  8
1
  6
CONTINUOUS
 62
     1
100
AcDbCircle
 10
1127.7698
 20
167.571007
 30
0.0
 40
88.232258
210
0.0
220
0.0
230
1.0
100
AcDbArc
 50
224.053983
 51
262.994756
  0
ARC
  5
6F
100
AcDbEntity
  8
1
  6
CONTINUOUS
 62
     1
100
AcDbCircle
 10
1130.548004
 20
172.187228
 30
0.0
 40
92.584437
210
0.0
220
0.0
230
1.0
100
AcDbArc
 50
261.572522
 51
291.479011
  0
ARC
  5
70
100
AcDbEntity
  8
1
  6
CONTINUOUS
 62
     1
100
AcDbCircle
 10
1130.548004
 20
172.187228
 30
0.0
 40
93.180087
210
0.0
220
0.0
230
1.0
100
AcDbArc
 50
261.572522
 51
290.742653
  0
ARC
  5
71
100
AcDbEntity
  8
1
  6
CONTINUOUS
 62
     1
100
AcDbCircle
 10
1325.886019
 20
111.039429
 30
0.0
 40
72.452241
210
0.0
220
0.0
230
1.0
100
AcDbArc
 50
219.5398
 51
260.712583
  0
ARC
  5
72
100
AcDbEntity
  8
1
  6
CONTINUOUS
 62
     1
100
AcDbCircle
 10
1389.575413
 20
586.780761
 30
0.0
 40
552.411324
210
0.0
220
0.0
230
1.0
100
AcDbArc
 50
262.156922
 51
266.157108
  0
ARC
  5
73
100
AcDbEntity
  8
1
  6
CONTINUOUS
 62
     1
100
AcDbCircle
 10
1389.575413
 20
586.780761
 30
0.0
 40
543.476574
210
0.0
220
0.0
230
1.0
100
AcDbArc
 50
262.156922
 51
266.157108
  0
ARC
  5
74
100
AcDbEntity
  8
1
  6
DASHED
 62
     1
100
AcDbCircle
 10
1389.575413
 20
586.780761
 30
0.0
 40
548.241774
210
0.0
220
0.0
230
1.0
100
AcDbArc
 50
262.156922
 51
266.157111
  0
ARC
  5
75
100
AcDbEntity
  8
1
  6
CONTINUOUS
 62
     1
100
AcDbCircle
 10
1389.575413
 20
586.780761
 30
0.0
 40
547.646124
210
0.0
220
0.0
230
1.0
100
AcDbArc
 50
262.156922
 51
266.157111
  0
ARC
  5
76
100
AcDbEntity
  8
1
  6
CONTINUOUS
 62
     1
100
AcDbCircle
 10
1210.025594
 20
6.877679
 30
0.0
 40
83.467058
210
0.0
220
0.0
230
1.0
100
AcDbArc
 50
44.053983
 51
82.994756
  0
ARC
  5
77
100
AcDbEntity
  8
1
  6
CONTINUOUS
 62
     1
100
AcDbCircle
 10
1207.24739
 20
2.261458
 30
0.0
 40
88.414887
210
0.0
220
0.0
230
1.0
100
AcDbArc
 50
81.572522
 51
111.229478
  0
ARC
  5
78
100
AcDbEntity
  8
1
  6
CONTINUOUS
 62
     1
100
AcDbCircle
 10
1325.886019
 20
111.039429
 30
0.0
 40
63.517491
210
0.0
220
0.0
230
1.0
100
AcDbArc
 50
218.950344
 51
260.712583
  0
ARC
  5
79
100
AcDbEntity
  8
1
  6
CONTINUOUS
 62
     1
100
AcDbCircle
 10
1210.025594
 20
6.877679
 30
0.0
 40
92.401808
210
0.0
220
0.0
230
1.0
100
AcDbArc
 50
44.053983
 51
82.994756
  0
ARC
  5
7A
100
AcDbEntity
  8
1
  6
CONTINUOUS
 62
     1
100
AcDbCircle
 10
1207.24739
 20
2.261458
 30
0.0
 40
97.349637
210
0.0
220
0.0
230
1.0
100
AcDbArc
 50
81.572522
 51
111.229478
  0
ARC
  5
7B
100
AcDbEntity
  8
1
  6
CONTINUOUS
 62
     1
100
AcDbCircle
 10
1325.886019
 20
111.039429
 30
0.0
 40
68.282691
210
0.0
220
0.0
230
1.0
100
AcDbArc
 50
219.264506
 51
260.712583
  0
ARC
  5
7C
100
AcDbEntity
  8
1
  6
CONTINUOUS
 62
     1
100
AcDbCircle
 10
1325.886019
 20
111.039429
 30
0.0
 40
67.687041
210
0.0
220
0.0
230
1.0
100
AcDbArc
 50
219.222414
 51
260.712583
  0
ARC
  5
7D
100
AcDbEntity
  8
1
  6
CONTINUOUS
 62
     1
100
AcDbCircle
 10
1210.025594
 20
6.877679
 30
0.0
 40
87.636608
210
0.0
220
0.0
230
1.0
100
AcDbArc
 50
44.053983
 51
82.994756
  0
ARC
  5
7E
100
AcDbEntity
  8
1
  6
CONTINUOUS
 62
     1
100
AcDbCircle
 10
1210.025594
 20
6.877679
 30
0.0
 40
88.232258
210
0.0
220
0.0
230
1.0
100
AcDbArc
 50
44.053983
 51
82.994756
  0
ARC
  5
7F
100
AcDbEntity
  8
1
  6
CONTINUOUS
 62
     1
100
AcDbCircle
 10
1207.24739
 20
2.261458
 30
0.0
 40
92.584437
210
0.0
220
0.0
230
1.0
100
AcDbArc
 50
81.572522
 51
112.259464
  0
ARC
  5
80
100
AcDbEntity
  8
1
  6
CONTINUOUS
 62
     1
100
AcDbCircle
 10
1207.24739
 20
2.261458
 30
0.0
 40
93.180087
210
0.0
220
0.0
230
1.0
100
AcDbArc
 50
81.572522
 51
111.497725
  0
LINE
  5
82
100
AcDbEntity
  8
61
  6
CONTINUOUS
 62
     1
100
AcDbLine
 10
782.8217
 20
194.1857
 30
0.0
 11
782.8217
 21
-167.2003
 31
0.0
  0
LINE
  5
83
100
AcDbEntity
  8
61
  6
CONTINUOUS
 62
     1
100
AcDbLine
 10
976.6691
 20
194.2102
 30
0.0
 11
976.6863
 21
-167.2063
 31
0.0
  0
LINE
  5
84
100
AcDbEntity
  8
61
  6
CONTINUOUS
 62
     1
100
AcDbLine
 10
1370.9879
 20
-7.5703
 30
0.0
 11
579.3263
 21
-7.5703
 31
0.0
  0
LINE
  5
85
100
AcDbEntity
  8
61
  6
CONTINUOUS
 62
     1
100
AcDbLine
 10
1370.9879
 20
-167.2187
 30
0.0
 11
579.3566
 21
-167.1939
 31
0.0
  0
ARC
  5
86
100
AcDbEntity
  8
1
  6
CONTINUOUS
 62
     1
100
AcDbCircle
 10
805.29096
 20
-149.154358
 30
0.0
 40
101.842757
210
0.0
220
0.0
230
1.0
100
AcDbArc
 50
69.337047
 51
94.8577
  0
ARC
  5
87
100
AcDbEntity
  8
1
  6
CONTINUOUS
 62
     1
100
AcDbCircle
 10
814.315336
 20
-125.931885
 30
0.0
 40
76.930104
210
0.0
220
0.0
230
1.0
100
AcDbArc
 50
30.618153
 51
69.522761
  0
ARC
  5
88
100
AcDbEntity
  8
1
  6
CONTINUOUS
 62
     1
100
AcDbCircle
 10
946.724464
 20
-47.568715
 30
0.0
 40
76.930104
210
0.0
220
0.0
230
1.0
100
AcDbArc
 50
210.618153
 51
249.522761
  0
ARC
  5
89
100
AcDbEntity
  8
1
  6
CONTINUOUS
 62
     1
100
AcDbCircle
 10
955.74884
 20
-24.346242
 30
0.0
 40
101.842757
210
0.0
220
0.0
230
1.0
100
AcDbArc
 50
249.337047
 51
274.628119
  0
ARC
  5
8A
100
AcDbEntity
  8
1
  6
CONTINUOUS
 62
     1
100
AcDbCircle
 10
805.29096
 20
-149.154358
 30
0.0
 40
93.742757
210
0.0
220
0.0
230
1.0
100
AcDbArc
 50
69.337047
 51
94.857667
  0
ARC
  5
8B
100
AcDbEntity
  8
1
  6
CONTINUOUS
 62
     1
100
AcDbCircle
 10
814.315336
 20
-125.931885
 30
0.0
 40
68.830104
210
0.0
220
0.0
230
1.0
100
AcDbArc
 50
30.618153
 51
69.522761
  0
ARC
  5
8C
100
AcDbEntity
  8
1
  6
CONTINUOUS
 62
     1
100
AcDbCircle
 10
946.724464
 20
-47.568715
 30
0.0
 40
85.030104
210
0.0
220
0.0
230
1.0
100
AcDbArc
 50
210.618153
 51
249.522761
  0
ARC
  5
8D
100
AcDbEntity
  8
1
  6
CONTINUOUS
 62
     1
100
AcDbCircle
 10
955.74884
 20
-24.346242
 30
0.0
 40
109.942757
210
0.0
220
0.0
230
1.0
100
AcDbArc
 50
249.337047
 51
274.628103
  0
ARC
  5
8E
100
AcDbEntity
  8
1
  6
CONTINUOUS
 62
     1
100
AcDbCircle
 10
805.29096
 20
-149.154358
 30
0.0
 40
97.492757
210
0.0
220
0.0
230
1.0
100
AcDbArc
 50
69.337047
 51
94.857661
  0
ARC
  5
8F
100
AcDbEntity
  8
1
  6
CONTINUOUS
 62
     1
100
AcDbCircle
 10
814.315336
 20
-125.931885
 30
0.0
 40
73.180104
210
0.0
220
0.0
230
1.0
100
AcDbArc
 50
30.618153
 51
69.522761
  0
ARC
  5
90
100
AcDbEntity
  8
1
  6
CONTINUOUS
 62
     1
100
AcDbCircle
 10
814.315336
 20
-125.931885
 30
0.0
 40
72.580104
210
0.0
220
0.0
230
1.0
100
AcDbArc
 50
30.618153
 51
69.522761
  0
ARC
  5
91
100
AcDbEntity
  8
1
  6
CONTINUOUS
 62
     1
100
AcDbCircle
 10
946.724464
 20
-47.568715
 30
0.0
 40
80.680104
210
0.0
220
0.0
230
1.0
100
AcDbArc
 50
210.618153
 51
249.522761
  0
ARC
  5
92
100
AcDbEntity
  8
1
  6
CONTINUOUS
 62
     1
100
AcDbCircle
 10
946.724464
 20
-47.568715
 30
0.0
 40
81.280104
210
0.0
220
0.0
230
1.0
100
AcDbArc
 50
210.618153
 51
249.522761
  0
ARC
  5
93
100
AcDbEntity
  8
1
  6
CONTINUOUS
 62
     1
100
AcDbCircle
 10
955.74884
 20
-24.346242
 30
0.0
 40
105.592757
210
0.0
220
0.0
230
1.0
100
AcDbArc
 50
249.337047
 51
274.628097
  0
LINE
  5
94
100
AcDbEntity
  8
1
  6
CONTINUOUS
 62
     1
100
AcDbLine
 10
986.6237
 20
-24.5105
 30
0.0
 11
1005.8063
 21
-24.4201
 31
0.0
  0
ARC
  5
95
100
AcDbEntity
  8
1
  6
CONTINUOUS
 62
     1
100
AcDbCircle
 10
1009.373231
 20
-82.045626
 30
0.0
 40
57.735855
210
0.0
220
0.0
230
1.0
100
AcDbArc
 50
14.568619
 51
93.542008
  0
ARC
  5
96
100
AcDbEntity
  8
1
  6
CONTINUOUS
 62
     1
100
AcDbCircle
 10
1118.11895
 20
-55.287284
 30
0.0
 40
54.26368
210
0.0
220
0.0
230
1.0
100
AcDbArc
 50
193.031247
 51
323.830589
  0
LINE
  5
97
100
AcDbEntity
  8
1
  6
CONTINUOUS
 62
     1
100
AcDbLine
 10
986.6657
 20
-33.4203
 30
0.0
 11
1005.8483
 21
-33.33
 31
0.0
  0
ARC
  5
98
100
AcDbEntity
  8
1
  6
CONTINUOUS
 62
     1
100
AcDbCircle
 10
1009.373231
 20
-82.045626
 30
0.0
 40
48.825855
210
0.0
220
0.0
230
1.0
100
AcDbArc
 50
14.568619
 51
94.138539
  0
ARC
  5
99
100
AcDbEntity
  8
1
  6
CONTINUOUS
 62
     1
100
AcDbCircle
 10
1118.11895
 20
-55.287284
 30
0.0
 40
63.17368
210
0.0
220
0.0
230
1.0
100
AcDbArc
 50
193.031247
 51
322.630092
  0
LINE
  5
9A
100
AcDbEntity
  8
1
  6
CONTINUOUS
 62
     1
100
AcDbLine
 10
986.6462
 20
-29.2953
 30
0.0
 11
1005.8288
 21
-29.205
 31
0.0
  0
ARC
  5
9B
100
AcDbEntity
  8
1
  6
CONTINUOUS
 62
     1
100
AcDbCircle
 10
1009.373231
 20
-82.045626
 30
0.0
 40
53.610855
210
0.0
220
0.0
230
1.0
100
AcDbArc
 50
14.568619
 51
79.465747
  0
ARC
  5
9C
100
AcDbEntity
  8
1
  6
CONTINUOUS
 62
     1
100
AcDbCircle
 10
1009.373231
 20
-82.045626
 30
0.0
 40
52.950855
210
0.0
220
0.0
230
1.0
100
AcDbArc
 50
14.568619
 51
93.837478
  0
ARC
  5
9D
100
AcDbEntity
  8
1
  6
CONTINUOUS
 62
     1
100
AcDbCircle
 10
1118.11895
 20
-55.287284
 30
0.0
 40
58.38868
210
0.0
220
0.0
230
1.0
100
AcDbArc
 50
193.031247
 51
324.5883
  0
ARC
  5
9E
100
AcDbEntity
  8
1
  6
CONTINUOUS
 62
     1
100
AcDbCircle
 10
1118.11895
 20
-55.287284
 30
0.0
 40
59.04868
210
0.0
220
0.0
230
1.0
100
AcDbArc
 50
193.031247
 51
322.625339
  0
ARC
  5
9F
100
AcDbEntity
  8
1
  6
CONTINUOUS
 62
     1
100
AcDbCircle
 10
1326.884109
 20
-91.370264
 30
0.0
 40
57.735855
210
0.0
220
0.0
230
1.0
100
AcDbArc
 50
194.568619
 51
273.542008
  0
LINE
  5
A0
100
AcDbEntity
  8
1
  6
CONTINUOUS
 62
     1
100
AcDbLine
 10
1349.6331
 20
-148.9052
 30
0.0
 11
1330.4511
 21
-148.9958
 31
0.0
  0
ARC
  5
A1
100
AcDbEntity
  8
1
  6
CONTINUOUS
 62
     1
100
AcDbCircle
 10
1218.13839
 20
-118.128606
 30
0.0
 40
54.26368
210
0.0
220
0.0
230
1.0
100
AcDbArc
 50
13.031247
 51
145.114317
  0
LINE
  5
A2
100
AcDbEntity
  8
1
  6
CONTINUOUS
 62
     1
100
AcDbLine
 10
1349.5911
 20
-139.9953
 30
0.0
 11
1329.9005
 21
-140.0884
 31
0.0
  0
ARC
  5
A3
100
AcDbEntity
  8
1
  6
CONTINUOUS
 62
     1
100
AcDbCircle
 10
1326.884109
 20
-91.370264
 30
0.0
 40
48.825855
210
0.0
220
0.0
230
1.0
100
AcDbArc
 50
194.568619
 51
273.542008
  0
ARC
  5
A4
100
AcDbEntity
  8
1
  6
CONTINUOUS
 62
     1
100
AcDbCircle
 10
1218.13839
 20
-118.128606
 30
0.0
 40
63.17368
210
0.0
220
0.0
230
1.0
100
AcDbArc
 50
13.031247
 51
143.729053
  0
LINE
  5
A5
100
AcDbEntity
  8
1
  6
DASHED
 62
     1
100
AcDbLine
 10
1349.6137
 20
-144.7802
 30
0.0
 11
1330.1962
 21
-144.872
 31
0.0
  0
LINE
  5
A6
100
AcDbEntity
  8
1
  6
CONTINUOUS
 62
     1
100
AcDbLine
 10
1349.6106
 20
-144.1203
 30
0.0
 11
1330.1555
 21
-144.2123
 31
0.0
  0
ARC
  5
A7
100
AcDbEntity
  8
1
  6
CONTINUOUS
 62
     1
100
AcDbCircle
 10
1326.884109
 20
-91.370264
 30
0.0
 40
52.950855
210
0.0
220
0.0
230
1.0
100
AcDbArc
 50
194.568619
 51
273.542008
  0
ARC
  5
A8
100
AcDbEntity
  8
1
  6
CONTINUOUS
 62
     1
100
AcDbCircle
 10
1218.13839
 20
-118.128606
 30
0.0
 40
58.38868
210
0.0
220
0.0
230
1.0
100
AcDbArc
 50
13.031247
 51
144.533739
  0
ARC
  5
A9
100
AcDbEntity
  8
1
  6
CONTINUOUS
 62
     1
100
AcDbCircle
 10
1218.13839
 20
-118.128606
 30
0.0
 40
59.04868
210
0.0
220
0.0
230
1.0
100
AcDbArc
 50
13.031247
 51
142.576728
  0
ARC
  5
AA
100
AcDbEntity
  8
1
  6
CONTINUOUS
 62
     1
100
AcDbCircle
 10
688.42193
 20
-219.840066
 30
0.0
 40
149.527501
210
0.0
220
0.0
230
1.0
100
AcDbArc
 50
54.157239
 51
125.842761
  0
ARC
  5
AB
100
AcDbEntity
  8
1
  6
CONTINUOUS
 62
     1
100
AcDbCircle
 10
688.42193
 20
-219.840066
 30
0.0
 40
140.617501
210
0.0
220
0.0
230
1.0
100
AcDbArc
 50
54.157239
 51
125.842761
  0
ARC
  5
AC
100
AcDbEntity
  8
1
  6
CONTINUOUS
 62
     1
100
AcDbCircle
 10
688.42193
 20
-219.840066
 30
0.0
 40
144.742501
210
0.0
220
0.0
230
1.0
100
AcDbArc
 50
73.498803
 51
125.842761
  0
INSERT
  5
B4
100
AcDbEntity
  8
1
  6
CONTINUOUS
 62
     1
100
AcDbBlockReference
  2
2SPT
 10
640.8549
 20
116.44
 30
0.0
 41
240.000003
 42
240.000003
 50
306.023406
210
0.0
220
0.0
230
1.0
  0
INSERT
  5
B5
100
AcDbEntity
  8
1
  6
CONTINUOUS
 62
     1
100
AcDbBlockReference
  2
2SPT
 10
708.6693
 20
116.44
 30
0.0
 41
240.000003
 42
-240.000003
 50
233.976594
210
0.0
220
0.0
230
1.0
  0
LINE
  5
B6
100
AcDbEntity
  8
1
  6
CONTINUOUS
 62
     7
100
AcDbLine
 10
627.242
 20
84.9045
 30
0.0
 11
636.8294
 21
76.6566
 31
0.0
  0
LINE
  5
B7
100
AcDbEntity
  8
1
  6
CONTINUOUS
 62
     7
100
AcDbLine
 10
613.2736
 20
53.1353
 30
0.0
 11
617.962
 21
49.1022
 31
0.0
  0
INSERT
  5
BD
100
AcDbEntity
  8
4
  6
CONTINUOUS
 62
     1
100
AcDbBlockReference
  2
1SPT
 10
611.2166
 20
55.5244
 30
0.0
 41
239.999999
 42
239.999999
 50
318.984631
210
0.0
220
0.0
230
1.0
  0
INSERT
  5
C3
100
AcDbEntity
  8
1
  6
CONTINUOUS
 62
     1
100
AcDbBlockReference
  2
LDR
 10
635.9198
 20
77.4392
 30
0.0
 41
239.999999
 42
239.999999
 50
48.956111
210
0.0
220
0.0
230
1.0
  0
INSERT
  5
C4
100
AcDbEntity
  8
1
  6
CONTINUOUS
 62
     1
100
AcDbBlockReference
  2
LDR
 10
635.9198
 20
77.4392
 30
0.0
 41
239.999999
 42
239.999999
 50
48.956111
210
0.0
220
0.0
230
1.0
  0
INSERT
  5
C5
100
AcDbEntity
  8
1
  6
CONTINUOUS
 62
     1
100
AcDbBlockReference
  2
LDR
 10
617.0523
 20
49.8848
 30
0.0
 41
240.000002
 42
240.000002
 50
242.242045
210
0.0
220
0.0
230
1.0
  0
LINE
  5
C6
100
AcDbEntity
  8
1
  6
CONTINUOUS
 62
     7
100
AcDbLine
 10
730.9586
 20
92.1747
 30
0.0
 11
741.7615
 21
98.7509
 31
0.0
  0
LINE
  5
C7
100
AcDbEntity
  8
1
  6
CONTINUOUS
 62
     7
100
AcDbLine
 10
755.5744
 20
68.2996
 30
0.0
 11
762.1533
 21
72.3049
 31
0.0
  0
INSERT
  5
C8
100
AcDbEntity
  8
4
  6
CONTINUOUS
 62
     1
100
AcDbBlockReference
  2
1SPT
 10
752.5348
 20
67.0114
 30
0.0
 41
239.999999
 42
239.999999
 50
31.020215
210
0.0
220
0.0
230
1.0
  0
INSERT
  5
C9
100
AcDbEntity
  8
1
  6
CONTINUOUS
 62
     1
100
AcDbBlockReference
  2
LDR
 10
739.8609
 20
97.3799
 30
0.0
 41
239.999999
 42
239.999999
 50
134.277628
210
0.0
220
0.0
230
1.0
  0
INSERT
  5
CA
100
AcDbEntity
  8
1
  6
CONTINUOUS
 62
     1
100
AcDbBlockReference
  2
LDR
 10
760.2527
 20
70.9337
 30
0.0
 41
240.000002
 42
240.000002
 50
300.991694
210
0.0
220
0.0
230
1.0
  0
INSERT
  5
D9
100
AcDbEntity
  8
1
  6
CONTINUOUS
 62
     1
100
AcDbBlockReference
  2
ARO
 10
647.285
 20
118.8937
 30
0.0
 41
240.000001
 42
240.000001
 50
305.528658
210
0.0
220
0.0
230
1.0
  0
LWPOLYLINE
  5
DA
100
AcDbEntity
  8
1
  6
CONTINUOUS
 62
     7
100
AcDbPolyline
 90
        4
 70
     1
 10
644.3057
 20
114.9647
 10
632.7613
 20
131.1322
 10
640.1303
 20
136.394
 10
651.6747
 20
120.2265
  0
LWPOLYLINE
  5
DB
100
AcDbEntity
  8
1
  6
CONTINUOUS
 62
     7
100
AcDbPolyline
 90
        4
 70
     1
 10
704.6565
 20
114.5631
 10
716.2009
 20
130.7306
 10
708.8319
 20
135.9924
 10
697.2875
 20
119.8249
  0
INSERT
  5
DC
100
AcDbEntity
  8
1
  6
CONTINUOUS
 62
     1
100
AcDbBlockReference
  2
ARO
 10
701.6772
 20
118.4921
 30
0.0
 41
240.000001
 42
-240.000001
 50
234.471342
210
0.0
220
0.0
230
1.0
  0
INSERT
  5
EC
100
AcDbEntity
  8
1
  6
CONTINUOUS
 62
     1
100
AcDbBlockReference
  2
ADV
 10
620.3846
 20
42.6864
 30
0.0
 41
240.000001
 42
240.000001
 50
234.705842
210
0.0
220
0.0
230
1.0
  0
TEXT
  5
ED
100
AcDbEntity
  8
1
  6
CONTINUOUS
 62
     7
100
AcDbText
 10
613.1461
 20
34.482
 30
0.0
 40
1.2
  1
M.P.H.
 50
317.274536
  7
MONOTXT
210
0.0
220
0.0
230
1.0
100
AcDbText
  0
LWPOLYLINE
  5
EE
100
AcDbEntity
  8
1
  6
CONTINUOUS
 62
     7
100
AcDbPolyline
 90
        5
 70
     0
 10
619.8117
 20
37.8202
 10
619.8117
 20
48.6202
 10
630.6117
 20
48.6202
 10
630.6117
 20
37.8202
 10
619.8117
 20
37.8202
  0
LWPOLYLINE
  5
EF
100
AcDbEntity
  8
1
  6
CONTINUOUS
 62
     7
100
AcDbPolyline
 90
        5
 70
     0
 10
612.3503
 20
34.4858
 10
616.805
 20
38.9406
 10
621.2598
 20
34.4858
 10
616.805
 20
30.031
 10
612.3503
 20
34.4858
  0
LWPOLYLINE
  5
F0
100
AcDbEntity
  8
1
  6
CONTINUOUS
 62
     7
100
AcDbPolyline
 90
        5
 70
     0
 10
770.5294
 20
75.6498
 10
770.5294
 20
86.4498
 10
759.7294
 20
86.4498
 10
759.7294
 20
75.6498
 10
770.5294
 20
75.6498
  0
INSERT
  5
F1
100
AcDbEntity
  8
1
  6
CONTINUOUS
 62
     1
100
AcDbBlockReference
  2
ADV
 10
769.9565
 20
80.516
 30
0.0
 41
240.000001
 42
-240.000001
 50
305.294158
210
0.0
220
0.0
230
1.0
  0
TEXT
  5
F2
100
AcDbEntity
  8
1
  6
CONTINUOUS
 62
     7
100
AcDbText
 10
773.6118
 20
68.8407
 30
0.0
 40
1.2
  1
M.P.H.
 50
47.274536
  7
MONOTXT
210
0.0
220
0.0
230
1.0
100
AcDbText
  0
LWPOLYLINE
  5
F3
100
AcDbEntity
  8
1
  6
CONTINUOUS
 62
     7
100
AcDbPolyline
 90
        5
 70
     0
 10
777.9908
 20
72.3154
 10
773.5361
 20
76.7702
 10
769.0813
 20
72.3154
 10
773.5361
 20
67.8606
 10
777.9908
 20
72.3154
  0
INSERT
  5
F4
100
AcDbEntity
  8
4
  6
CONTINUOUS
 62
     1
100
AcDbBlockReference
  2
1SPT
 10
791.2148
 20
140.7695
 30
0.0
 41
240.0
 42
240.0
 50
256.80049
210
0.0
220
0.0
230
1.0
  0
LINE
  5
F5
100
AcDbEntity
  8
1
  6
CONTINUOUS
 62
     7
100
AcDbLine
 10
834.3881
 20
139.1885
 30
0.0
 11
831.7501
 21
127.6606
 31
0.0
  0
LINE
  5
F6
100
AcDbEntity
  8
1
  6
CONTINUOUS
 62
     7
100
AcDbLine
 10
790.0617
 20
137.8353
 30
0.0
 11
788.668
 21
131.7446
 31
0.0
  0
LWPOLYLINE
  5
F7
100
AcDbEntity
  8
1
  6
CONTINUOUS
 62
     7
100
AcDbPolyline
 90
        4
 70
     1
 10
861.106
 20
144.9151
 10
861.1257
 20
164.7811
 10
870.1805
 20
164.7721
 10
870.1607
 20
144.9061
  0
INSERT
  5
F8
100
AcDbEntity
  8
1
  6
CONTINUOUS
 62
     1
100
AcDbBlockReference
  2
ARO
 10
865.8152
 20
146.3766
 30
0.0
 41
240.000001
 42
240.000001
 50
269.943265
210
0.0
220
0.0
230
1.0
  0
INSERT
  5
F9
100
AcDbEntity
  8
1
  6
CONTINUOUS
 62
     1
100
AcDbBlockReference
  2
2SPT
 10
858.9251
 20
145.6078
 30
0.0
 41
240.000003
 42
240.000003
 50
270.054881
210
0.0
220
0.0
230
1.0
  0
LWPOLYLINE
  5
FA
100
AcDbEntity
  8
1
  6
CONTINUOUS
 62
     7
100
AcDbPolyline
 90
        5
 70
     0
 10
798.6768
 20
113.1379
 10
792.6867
 20
122.1244
 10
801.6732
 20
128.1146
 10
807.6634
 20
119.128
 10
798.6768
 20
113.1379
  0
TEXT
  5
FB
100
AcDbEntity
  8
1
  6
CONTINUOUS
 62
     7
100
AcDbText
 10
786.4934
 20
125.9827
 30
0.0
 40
1.2
  1
M.P.H.
 50
258.498842
  7
MONOTXT
210
0.0
220
0.0
230
1.0
100
AcDbText
  0
LWPOLYLINE
  5
FC
100
AcDbEntity
  8
1
  6
CONTINUOUS
 62
     7
100
AcDbPolyline
 90
        5
 70
     0
 10
784.7087
 20
120.5896
 10
785.9446
 20
126.7672
 10
792.1222
 20
125.5312
 10
790.8863
 20
119.3537
 10
784.7087
 20
120.5896
  0
POLYLINE
  5
FD
100
AcDbEntity
  8
1
  6
CONTINUOUS
 62
     1
100
AcDb2dPolyline
 66
     1
 10
0.0
 20
0.0
 30
0.0
 70
     1
  0
VERTEX
  5
FE
100
AcDbEntity
  8
1
  6
CONTINUOUS
 62
     1
100
AcDbVertex
100
AcDb2dVertex
 10
796.7255
 20
123.6596
 30
0.0
  0
VERTEX
  5
FF
100
AcDbEntity
  8
1
  6
CONTINUOUS
 62
     1
100
AcDbVertex
100
AcDb2dVertex
 10
799.9261
 20
123.0193
 30
0.0
  0
VERTEX
  5
100
100
AcDbEntity
  8
1
  6
CONTINUOUS
 62
     1
100
AcDbVertex
100
AcDb2dVertex
 10
799.4223
 20
120.5012
 30
0.0
  0
VERTEX
  5
101
100
AcDbEntity
  8
1
  6
CONTINUOUS
 62
     1
100
AcDbVertex
100
AcDb2dVertex
 10
801.1638
 20
120.1527
 30
0.0
  0
VERTEX
  5
102
100
AcDbEntity
  8
1
  6
CONTINUOUS
 62
     1
100
AcDbVertex
100
AcDb2dVertex
 10
801.3709
 20
121.1882
 30
0.0
  0
VERTEX
  5
103
100
AcDbEntity
  8
1
  6
CONTINUOUS
 62
     1
100
AcDbVertex
100
AcDb2dVertex
 10
804.9432
 20
118.6134
 30
0.0
  0
VERTEX
  5
104
100
AcDbEntity
  8
1
  6
CONTINUOUS
 62
     1
100
AcDbVertex
100
AcDb2dVertex
 10
800.6647
 20
117.6582
 30
0.0
  0
VERTEX
  5
105
100
AcDbEntity
  8
1
  6
CONTINUOUS
 62
     1
100
AcDbVertex
100
AcDb2dVertex
 10
800.8718
 20
118.6937
 30
0.0
  0
VERTEX
  5
106
100
AcDbEntity
  8
1
  6
CONTINUOUS
 62
     1
100
AcDbVertex
100
AcDb2dVertex
 10
797.6713
 20
119.334
 30
0.0
  0
VERTEX
  5
107
100
AcDbEntity
  8
1
  6
CONTINUOUS
 62
     1
100
AcDbVertex
100
AcDb2dVertex
 10
798.1751
 20
121.8521
 30
0.0
  0
VERTEX
  5
108
100
AcDbEntity
  8
1
  6
CONTINUOUS
 62
     1
100
AcDbVertex
100
AcDb2dVertex
 10
796.4336
 20
122.2005
 30
0.0
  0
VERTEX
  5
109
100
AcDbEntity
  8
1
  6
CONTINUOUS
 62
     1
100
AcDbVertex
100
AcDb2dVertex
 10
796.7255
 20
123.6596
 30
0.0
  0
SEQEND
  5
10A
100
AcDbEntity
  8
1
  6
CONTINUOUS
 62
     1
  0
INSERT
  5
10B
100
AcDbEntity
  8
1
  6
CONTINUOUS
 62
     1
100
AcDbBlockReference
  2
LDR
 10
788.9358
 20
132.9144
 30
0.0
 41
239.999998
 42
239.999998
 50
176.866544
210
0.0
220
0.0
230
1.0
  0
INSERT
  5
10C
100
AcDbEntity
  8
1
  6
CONTINUOUS
 62
     1
100
AcDbBlockReference
  2
LDR
 10
788.9358
 20
132.9144
 30
0.0
 41
239.999998
 42
239.999998
 50
176.866544
210
0.0
220
0.0
230
1.0
  0
INSERT
  5
10D
100
AcDbEntity
  8
1
  6
CONTINUOUS
 62
     1
100
AcDbBlockReference
  2
LDR
 10
832.0178
 20
128.8304
 30
0.0
 41
239.999998
 42
239.999998
 50
352.30307
210
0.0
220
0.0
230
1.0
  0
LINE
  5
10E
100
AcDbEntity
  8
1
  6
CONTINUOUS
 62
     7
100
AcDbLine
 10
926.1722
 20
34.059
 30
0.0
 11
928.8103
 21
45.587
 31
0.0
  0
INSERT
  5
10F
100
AcDbEntity
  8
4
  6
CONTINUOUS
 62
     1
100
AcDbBlockReference
  2
1SPT
 10
969.3456
 20
32.4781
 30
0.0
 41
240.0
 42
240.0
 50
76.80049
210
0.0
220
0.0
230
1.0
  0
LINE
  5
110
100
AcDbEntity
  8
1
  6
CONTINUOUS
 62
     7
100
AcDbLine
 10
970.4987
 20
35.4123
 30
0.0
 11
971.8924
 21
41.503
 31
0.0
  0
LWPOLYLINE
  5
111
100
AcDbEntity
  8
1
  6
CONTINUOUS
 62
     7
100
AcDbPolyline
 90
        5
 70
     0
 10
960.3348
 20
60.292
 10
966.3249
 20
51.3055
 10
957.3384
 20
45.3153
 10
951.3482
 20
54.3019
 10
960.3348
 20
60.292
  0
TEXT
  5
112
100
AcDbEntity
  8
1
  6
CONTINUOUS
 62
     7
100
AcDbText
 10
972.5182
 20
47.4472
 30
0.0
 40
1.2
  1
M.P.H.
 50
78.498842
  7
MONOTXT
210
0.0
220
0.0
230
1.0
100
AcDbText
  0
LWPOLYLINE
  5
113
100
AcDbEntity
  8
1
  6
CONTINUOUS
 62
     7
100
AcDbPolyline
 90
        5
 70
     0
 10
974.3029
 20
52.8403
 10
973.067
 20
46.6627
 10
966.8894
 20
47.8987
 10
968.1253
 20
54.0762
 10
974.3029
 20
52.8403
  0
POLYLINE
  5
114
100
AcDbEntity
  8
1
  6
CONTINUOUS
 62
     1
100
AcDb2dPolyline
 66
     1
 10
0.0
 20
0.0
 30
0.0
 70
     1
  0
VERTEX
  5
115
100
AcDbEntity
  8
1
  6
CONTINUOUS
 62
     1
100
AcDbVertex
100
AcDb2dVertex
 10
962.2861
 20
49.7703
 30
0.0
  0
VERTEX
  5
116
100
AcDbEntity
  8
1
  6
CONTINUOUS
 62
     1
100
AcDbVertex
100
AcDb2dVertex
 10
959.0855
 20
50.4106
 30
0.0
  0
VERTEX
  5
117
100
AcDbEntity
  8
1
  6
CONTINUOUS
 62
     1
100
AcDbVertex
100
AcDb2dVertex
 10
959.5893
 20
52.9287
 30
0.0
  0
VERTEX
  5
118
100
AcDbEntity
  8
1
  6
CONTINUOUS
 62
     1
100
AcDbVertex
100
AcDb2dVertex
 10
957.8478
 20
53.2772
 30
0.0
  0
VERTEX
  5
119
100
AcDbEntity
  8
1
  6
CONTINUOUS
 62
     1
100
AcDbVertex
100
AcDb2dVertex
 10
957.6407
 20
52.2417
 30
0.0
  0
VERTEX
  5
11A
100
AcDbEntity
  8
1
  6
CONTINUOUS
 62
     1
100
AcDbVertex
100
AcDb2dVertex
 10
954.0684
 20
54.8165
 30
0.0
  0
VERTEX
  5
11B
100
AcDbEntity
  8
1
  6
CONTINUOUS
 62
     1
100
AcDbVertex
100
AcDb2dVertex
 10
958.3469
 20
55.7717
 30
0.0
  0
VERTEX
  5
11C
100
AcDbEntity
  8
1
  6
CONTINUOUS
 62
     1
100
AcDbVertex
100
AcDb2dVertex
 10
958.1398
 20
54.7362
 30
0.0
  0
VERTEX
  5
11D
100
AcDbEntity
  8
1
  6
CONTINUOUS
 62
     1
100
AcDbVertex
100
AcDb2dVertex
 10
961.3403
 20
54.0959
 30
0.0
  0
VERTEX
  5
11E
100
AcDbEntity
  8
1
  6
CONTINUOUS
 62
     1
100
AcDbVertex
100
AcDb2dVertex
 10
960.8365
 20
51.5778
 30
0.0
  0
VERTEX
  5
11F
100
AcDbEntity
  8
1
  6
CONTINUOUS
 62
     1
100
AcDbVertex
100
AcDb2dVertex
 10
962.578
 20
51.2294
 30
0.0
  0
VERTEX
  5
120
100
AcDbEntity
  8
1
  6
CONTINUOUS
 62
     1
100
AcDbVertex
100
AcDb2dVertex
 10
962.2861
 20
49.7703
 30
0.0
  0
SEQEND
  5
121
100
AcDbEntity
  8
1
  6
CONTINUOUS
 62
     1
  0
INSERT
  5
122
100
AcDbEntity
  8
1
  6
CONTINUOUS
 62
     1
100
AcDbBlockReference
  2
LDR
 10
971.6246
 20
40.3332
 30
0.0
 41
239.999998
 42
239.999998
 50
356.866544
210
0.0
220
0.0
230
1.0
  0
INSERT
  5
123
100
AcDbEntity
  8
1
  6
CONTINUOUS
 62
     1
100
AcDbBlockReference
  2
LDR
 10
928.5426
 20
44.4172
 30
0.0
 41
239.999998
 42
239.999998
 50
172.30307
210
0.0
220
0.0
230
1.0
  0
INSERT
  5
124
100
AcDbEntity
  8
1
  6
CONTINUOUS
 62
     1
100
AcDbBlockReference
  2
2SPT
 10
873.1319
 20
130.6193
 30
0.0
 41
240.000003
 42
240.000003
 50
0.054881
210
0.0
220
0.0
230
1.0
  0
LWPOLYLINE
  5
125
100
AcDbEntity
  8
1
  6
CONTINUOUS
 62
     7
100
AcDbPolyline
 90
        4
 70
     1
 10
873.1298
 20
141.3498
 10
892.9958
 20
141.3301
 10
892.9867
 20
132.2753
 10
873.1208
 20
132.295
  0
INSERT
  5
126
100
AcDbEntity
  8
1
  6
CONTINUOUS
 62
     1
100
AcDbBlockReference
  2
ARO
 10
874.5913
 20
136.6406
 30
0.0
 41
240.000001
 42
240.000001
 50
179.943265
210
0.0
220
0.0
230
1.0
  0
LWPOLYLINE
  5
127
100
AcDbEntity
  8
1
  6
CONTINUOUS
 62
     7
100
AcDbPolyline
 90
        4
 70
     1
 10
887.9733
 20
28.5861
 10
887.993
 20
8.7201
 10
897.0478
 20
8.7292
 10
897.0281
 20
28.5951
  0
LWPOLYLINE
  5
128
100
AcDbEntity
  8
1
  6
CONTINUOUS
 62
     7
100
AcDbPolyline
 90
        4
 70
     1
 10
884.408
 20
40.6099
 10
864.542
 20
40.5903
 10
864.551
 20
31.5354
 10
884.417
 20
31.5551
  0
INSERT
  5
129
100
AcDbEntity
  8
1
  6
CONTINUOUS
 62
     1
100
AcDbBlockReference
  2
ARO
 10
882.9465
 20
35.9007
 30
0.0
 41
240.000001
 42
-240.000001
 50
0.056735
210
0.0
220
0.0
230
1.0
  0
INSERT
  5
12A
100
AcDbEntity
  8
1
  6
CONTINUOUS
 62
     1
100
AcDbBlockReference
  2
2SPT
 10
883.7153
 20
42.7908
 30
0.0
 41
240.000003
 42
-240.000003
 50
359.945119
210
0.0
220
0.0
230
1.0
  0
INSERT
  5
12B
100
AcDbEntity
  8
1
  6
CONTINUOUS
 62
     1
100
AcDbBlockReference
  2
2SPT
 10
898.7038
 20
28.5839
 30
0.0
 41
240.000003
 42
-240.000003
 50
269.945119
210
0.0
220
0.0
230
1.0
  0
INSERT
  5
12C
100
AcDbEntity
  8
1
  6
CONTINUOUS
 62
     1
100
AcDbBlockReference
  2
ARO
 10
892.6825
 20
27.1246
 30
0.0
 41
240.000001
 42
-240.000001
 50
90.056735
210
0.0
220
0.0
230
1.0
  0
INSERT
  5
12D
100
AcDbEntity
  8
4
  6
CONTINUOUS
 62
     1
100
AcDbBlockReference
  2
1SPT
 10
982.0571
 20
125.8626
 30
0.0
 41
240.0
 42
240.0
 50
256.80049
210
0.0
220
0.0
230
1.0
  0
LINE
  5
12E
100
AcDbEntity
  8
1
  6
CONTINUOUS
 62
     7
100
AcDbLine
 10
1021.7743
 20
125.0724
 30
0.0
 11
1019.1363
 21
113.5445
 31
0.0
  0
LINE
  5
12F
100
AcDbEntity
  8
1
  6
CONTINUOUS
 62
     7
100
AcDbLine
 10
980.904
 20
122.9284
 30
0.0
 11
979.5103
 21
116.8377
 31
0.0
  0
LWPOLYLINE
  5
130
100
AcDbEntity
  8
1
  6
CONTINUOUS
 62
     7
100
AcDbPolyline
 90
        5
 70
     0
 10
994.1503
 20
97.2483
 10
988.1602
 20
106.2348
 10
997.1467
 20
112.225
 10
1003.1369
 20
103.2384
 10
994.1503
 20
97.2483
  0
TEXT
  5
131
100
AcDbEntity
  8
1
  6
CONTINUOUS
 62
     7
100
AcDbText
 10
981.9669
 20
110.0931
 30
0.0
 40
1.2
  1
M.P.H.
 50
258.498842
  7
MONOTXT
210
0.0
220
0.0
230
1.0
100
AcDbText
  0
LWPOLYLINE
  5
132
100
AcDbEntity
  8
1
  6
CONTINUOUS
 62
     7
100
AcDbPolyline
 90
        5
 70
     0
 10
980.1822
 20
104.7
 10
981.4181
 20
110.8776
 10
987.5957
 20
109.6416
 10
986.3598
 20
103.4641
 10
980.1822
 20
104.7
  0
INSERT
  5
133
100
AcDbEntity
  8
1
  6
CONTINUOUS
 62
     1
100
AcDbBlockReference
  2
LDR
 10
979.7781
 20
118.0075
 30
0.0
 41
239.999998
 42
239.999998
 50
176.866544
210
0.0
220
0.0
230
1.0
  0
INSERT
  5
134
100
AcDbEntity
  8
1
  6
CONTINUOUS
 62
     1
100
AcDbBlockReference
  2
LDR
 10
1019.3295
 20
114.3889
 30
0.0
 41
239.999998
 42
239.999998
 50
352.6785
210
0.0
220
0.0
230
1.0
  0
LINE
  5
135
100
AcDbEntity
  8
1
  6
CONTINUOUS
 62
     1
100
AcDbLine
 10
1161.26
 20
93.1281
 30
0.0
 11
1163.2041
 21
88.1228
 31
0.0
  0
LINE
  5
136
100
AcDbEntity
  8
1
  6
CONTINUOUS
 62
     1
100
AcDbLine
 10
1165.1579
 20
83.0934
 30
0.0
 11
1167.1023
 21
78.0883
 31
0.0
  0
LINE
  5
137
100
AcDbEntity
  8
1
  6
CONTINUOUS
 62
     1
100
AcDbLine
 10
1163.2041
 20
88.1228
 30
0.0
 11
1166.3388
 21
88.1046
 31
0.0
  0
LINE
  5
138
100
AcDbEntity
  8
1
  6
CONTINUOUS
 62
     1
100
AcDbLine
 10
1166.3388
 20
88.1046
 30
0.0
 11
1161.8552
 21
83.1894
 31
0.0
  0
LINE
  5
139
100
AcDbEntity
  8
1
  6
CONTINUOUS
 62
     1
100
AcDbLine
 10
1161.8552
 20
83.1894
 30
0.0
 11
1165.1579
 21
83.0934
 31
0.0
  0
LINE
  5
13A
100
AcDbEntity
  8
1
  6
CONTINUOUS
 62
     1
100
AcDbLine
 10
1170.5241
 20
96.7263
 30
0.0
 11
1172.4682
 21
91.721
 31
0.0
  0
LINE
  5
13B
100
AcDbEntity
  8
1
  6
CONTINUOUS
 62
     1
100
AcDbLine
 10
1172.4682
 20
91.721
 30
0.0
 11
1175.6029
 21
91.7028
 31
0.0
  0
LINE
  5
13C
100
AcDbEntity
  8
1
  6
CONTINUOUS
 62
     1
100
AcDbLine
 10
1174.422
 20
86.6916
 30
0.0
 11
1176.3664
 21
81.6865
 31
0.0
  0
LINE
  5
13D
100
AcDbEntity
  8
1
  6
CONTINUOUS
 62
     1
100
AcDbLine
 10
1175.6029
 20
91.7028
 30
0.0
 11
1171.1193
 21
86.7876
 31
0.0
  0
LINE
  5
13E
100
AcDbEntity
  8
1
  6
CONTINUOUS
 62
     1
100
AcDbLine
 10
1171.1193
 20
86.7876
 30
0.0
 11
1174.422
 21
86.6916
 31
0.0
  0
LINE
  5
13F
100
AcDbEntity
  8
1
  6
CONTINUOUS
 62
     7
100
AcDbLine
 10
1316.9792
 20
49.029
 30
0.0
 11
1319.8848
 21
61.7266
 31
0.0
  0
INSERT
  5
140
100
AcDbEntity
  8
4
  6
CONTINUOUS
 62
     1
100
AcDbBlockReference
  2
1SPT
 10
1350.2857
 20
47.9021
 30
0.0
 41
240.0
 42
240.0
 50
76.80049
210
0.0
220
0.0
230
1.0
  0
LINE
  5
141
100
AcDbEntity
  8
1
  6
CONTINUOUS
 62
     7
100
AcDbLine
 10
1351.4274
 20
51.0042
 30
0.0
 11
1353.1774
 21
58.6518
 31
0.0
  0
LWPOLYLINE
  5
142
100
AcDbEntity
  8
1
  6
CONTINUOUS
 62
     7
100
AcDbPolyline
 90
        5
 70
     0
 10
1338.5374
 20
78.2412
 10
1344.5275
 20
69.2547
 10
1335.541
 20
63.2645
 10
1329.5508
 20
72.2511
 10
1338.5374
 20
78.2412
  0
TEXT
  5
143
100
AcDbEntity
  8
1
  6
CONTINUOUS
 62
     7
100
AcDbText
 10
1350.7208
 20
65.3964
 30
0.0
 40
1.2
  1
M.P.H.
 50
78.498842
  7
MONOTXT
210
0.0
220
0.0
230
1.0
100
AcDbText
  0
LWPOLYLINE
  5
144
100
AcDbEntity
  8
1
  6
CONTINUOUS
 62
     7
100
AcDbPolyline
 90
        5
 70
     0
 10
1352.5055
 20
70.7895
 10
1351.2696
 20
64.6119
 10
1345.092
 20
65.8479
 10
1346.3279
 20
72.0254
 10
1352.5055
 20
70.7895
  0
INSERT
  5
145
100
AcDbEntity
  8
1
  6
CONTINUOUS
 62
     1
100
AcDbBlockReference
  2
LDR
 10
1352.9096
 20
57.482
 30
0.0
 41
239.999998
 42
239.999998
 50
356.866544
210
0.0
220
0.0
230
1.0
  0
INSERT
  5
146
100
AcDbEntity
  8
1
  6
CONTINUOUS
 62
     1
100
AcDbBlockReference
  2
LDR
 10
1319.5674
 20
60.3392
 30
0.0
 41
240.000002
 42
240.000002
 50
173.338011
210
0.0
220
0.0
230
1.0
  0
LWPOLYLINE
  5
147
100
AcDbEntity
  8
1
  6
CONTINUOUS
 62
     7
100
AcDbPolyline
 90
        5
 70
     0
 10
1335.8534
 20
-114.2349
 10
1343.5233
 20
-121.8382
 10
1335.92
 20
-129.5082
 10
1328.2499
 20
-121.9048
 10
1335.8534
 20
-114.2349
  0
INSERT
  5
148
100
AcDbEntity
  8
4
  6
CONTINUOUS
 62
     1
100
AcDbBlockReference
  2
1SPT
 10
1335.5236
 20
-136.7822
 30
0.0
 41
240.0
 42
240.0
 50
89.540432
210
0.0
220
0.0
230
1.0
  0
TEXT
  5
149
100
AcDbEntity
  8
1
  6
CONTINUOUS
 62
     7
100
AcDbText
 10
1350.3643
 20
-124.3767
 30
0.0
 40
1.2
  1
M.P.H.
 50
90.062486
  7
MONOTXT
210
0.0
220
0.0
230
1.0
100
AcDbText
  0
LWPOLYLINE
  5
14A
100
AcDbEntity
  8
1
  6
CONTINUOUS
 62
     7
100
AcDbPolyline
 90
        5
 70
     0
 10
1351.0317
 20
-118.7353
 10
1351.0592
 20
-125.0353
 10
1344.7592
 20
-125.0627
 10
1344.7317
 20
-118.7628
 10
1351.0317
 20
-118.7353
  0
ARC
  5
14B
100
AcDbEntity
  8
1
  6
DASHED
 62
     1
100
AcDbCircle
 10
1326.884109
 20
-91.370264
 30
0.0
 40
53.610855
210
0.0
220
0.0
230
1.0
100
AcDbArc
 50
259.712086
 51
273.542008
  0
ARC
  5
14C
100
AcDbEntity
  8
1
  6
CONTINUOUS
 62
     1
100
AcDbCircle
 10
1326.884109
 20
-91.370264
 30
0.0
 40
53.610855
210
0.0
220
0.0
230
1.0
100
AcDbArc
 50
194.568619
 51
259.049133
  0
LINE
  5
14D
100
AcDbEntity
  8
1
  6
CONTINUOUS
 62
     7
100
AcDbLine
 10
1317.3095
 20
-138.0481
 30
0.0
 11
1317.3095
 21
-130.9192
 31
0.0
  0
LINE
  5
14E
100
AcDbEntity
  8
1
  6
CONTINUOUS
 62
     7
100
AcDbLine
 10
1336.019
 20
-133.6661
 30
0.0
 11
1336.019
 21
-130.9192
 31
0.0
  0
POINT
  5
14F
100
AcDbEntity
  8
1
  6
CONTINUOUS
 62
     7
100
AcDbPoint
 10
1335.6632
 20
-132.1801
 30
0.0
  0
INSERT
  5
150
100
AcDbEntity
  8
1
  6
CONTINUOUS
 62
     1
100
AcDbBlockReference
  2
LDR
 10
1317.3095
 20
-132.1192
 30
0.0
 41
240.0
 42
240.0
 50
179.809827
210
0.0
220
0.0
230
1.0
  0
INSERT
  5
151
100
AcDbEntity
  8
1
  6
CONTINUOUS
 62
     1
100
AcDbBlockReference
  2
LDR
 10
1317.3095
 20
-132.1192
 30
0.0
 41
240.0
 42
240.0
 50
179.809827
210
0.0
220
0.0
230
1.0
  0
INSERT
  5
152
100
AcDbEntity
  8
1
  6
CONTINUOUS
 62
     1
100
AcDbBlockReference
  2
LDR
 10
1336.019
 20
-132.1813
 30
0.0
 41
240.0
 42
240.0
 50
359.809827
210
0.0
220
0.0
230
1.0
  0
INSERT
  5
153
100
AcDbEntity
  8
1
  6
CONTINUOUS
 62
     1
100
AcDbBlockReference
  2
LDR
 10
1336.019
 20
-132.1813
 30
0.0
 41
240.0
 42
240.0
 50
359.809827
210
0.0
220
0.0
230
1.0
  0
LWPOLYLINE
  5
154
100
AcDbEntity
  8
1
  6
CONTINUOUS
 62
     7
100
AcDbPolyline
 90
        4
 70
     1
 10
1283.52
 20
-136.0553
 10
1263.654
 20
-136.0749
 10
1263.663
 20
-145.1298
 10
1283.529
 20
-145.1101
  0
LWPOLYLINE
  5
155
100
AcDbEntity
  8
1
  6
CONTINUOUS
 62
     7
100
AcDbPolyline
 90
        4
 70
     1
 10
1284.305
 20
-145.5856
 10
1284.3247
 20
-165.4516
 10
1293.3795
 20
-165.4425
 10
1293.3598
 20
-145.5766
  0
INSERT
  5
156
100
AcDbEntity
  8
1
  6
CONTINUOUS
 62
     1
100
AcDbBlockReference
  2
ARO
 10
1282.0585
 20
-140.7645
 30
0.0
 41
240.000001
 42
-240.000001
 50
0.056735
210
0.0
220
0.0
230
1.0
  0
INSERT
  5
157
100
AcDbEntity
  8
1
  6
CONTINUOUS
 62
     1
100
AcDbBlockReference
  2
2SPT
 10
1291.4556
 20
-142.2178
 30
0.0
 41
240.000003
 42
-240.000003
 50
359.945119
210
0.0
220
0.0
230
1.0
  0
INSERT
  5
158
100
AcDbEntity
  8
1
  6
CONTINUOUS
 62
     1
100
AcDbBlockReference
  2
2SPT
 10
1295.8025
 20
-145.3001
 30
0.0
 41
240.000003
 42
-240.000003
 50
269.945119
210
0.0
220
0.0
230
1.0
  0
INSERT
  5
159
100
AcDbEntity
  8
1
  6
CONTINUOUS
 62
     1
100
AcDbBlockReference
  2
ARO
 10
1289.0142
 20
-147.0471
 30
0.0
 41
240.000001
 42
-240.000001
 50
90.056735
210
0.0
220
0.0
230
1.0
  0
LWPOLYLINE
  5
15A
100
AcDbEntity
  8
1
  6
CONTINUOUS
 62
     7
100
AcDbPolyline
 90
        4
 70
     1
 10
1202.1376
 20
-46.3678
 10
1183.9775
 20
-38.3137
 10
1180.3064
 20
-46.591
 10
1198.4666
 20
-54.6452
  0
INSERT
  5
15B
100
AcDbEntity
  8
1
  6
CONTINUOUS
 62
     1
100
AcDbBlockReference
  2
ARO
 10
1198.8887
 20
-50.077
 30
0.0
 41
240.000003
 42
-240.000003
 50
336.082314
210
0.0
220
0.0
230
1.0
  0
INSERT
  5
15C
100
AcDbEntity
  8
1
  6
CONTINUOUS
 62
     1
100
AcDbBlockReference
  2
2SPT
 10
1260.943
 20
-66.0271
 30
0.0
 41
240.000001
 42
-240.000001
 50
184.495154
210
0.0
220
0.0
230
1.0
  0
INSERT
  5
15D
100
AcDbEntity
  8
1
  6
CONTINUOUS
 62
     1
100
AcDbBlockReference
  2
2SPT
 10
1193.5319
 20
-55.8584
 30
0.0
 41
240.000004
 42
-240.000004
 50
157.923049
210
0.0
220
0.0
230
1.0
  0
LWPOLYLINE
  5
15E
100
AcDbEntity
  8
1
  6
CONTINUOUS
 62
     7
100
AcDbPolyline
 90
        4
 70
     1
 10
1254.4063
 20
-54.4834
 10
1274.1816
 20
-52.5871
 10
1275.0459
 20
-61.6007
 10
1255.2705
 20
-63.497
  0
INSERT
  5
15F
100
AcDbEntity
  8
1
  6
CONTINUOUS
 62
     1
100
AcDbBlockReference
  2
ARO
 10
1256.3151
 20
-59.0298
 30
0.0
 41
240.000001
 42
240.000001
 50
185.477447
210
0.0
220
0.0
230
1.0
  0
LWPOLYLINE
  5
160
100
AcDbEntity
  8
1
  6
CONTINUOUS
 62
     7
100
AcDbPolyline
 90
        4
 70
     1
 10
1135.2894
 20
-128.5083
 10
1153.4495
 20
-136.5624
 10
1157.1206
 20
-128.2851
 10
1138.9604
 20
-120.2309
  0
LWPOLYLINE
  5
161
100
AcDbEntity
  8
1
  6
CONTINUOUS
 62
     7
100
AcDbPolyline
 90
        5
 70
     0
 10
1001.5736
 20
-60.6412
 10
993.9037
 20
-53.0379
 10
1001.507
 20
-45.3679
 10
1009.1771
 20
-52.9713
 10
1001.5736
 20
-60.6412
  0
INSERT
  5
162
100
AcDbEntity
  8
4
  6
CONTINUOUS
 62
     1
100
AcDbBlockReference
  2
1SPT
 10
1001.9034
 20
-38.0939
 30
0.0
 41
240.0
 42
240.0
 50
269.540432
210
0.0
220
0.0
230
1.0
  0
TEXT
  5
163
100
AcDbEntity
  8
1
  6
CONTINUOUS
 62
     7
100
AcDbText
 10
987.0627
 20
-50.4994
 30
0.0
 40
1.2
  1
M.P.H.
 50
270.062486
  7
MONOTXT
210
0.0
220
0.0
230
1.0
100
AcDbText
  0
LWPOLYLINE
  5
164
100
AcDbEntity
  8
1
  6
CONTINUOUS
 62
     7
100
AcDbPolyline
 90
        5
 70
     0
 10
986.3953
 20
-56.1408
 10
986.3678
 20
-49.8408
 10
992.6678
 20
-49.8134
 10
992.6953
 20
-56.1133
 10
986.3953
 20
-56.1408
  0
LINE
  5
165
100
AcDbEntity
  8
1
  6
CONTINUOUS
 62
     7
100
AcDbLine
 10
1020.1175
 20
-36.828
 30
0.0
 11
1020.1175
 21
-43.9569
 31
0.0
  0
LINE
  5
166
100
AcDbEntity
  8
1
  6
CONTINUOUS
 62
     7
100
AcDbLine
 10
1001.408
 20
-41.21
 30
0.0
 11
1001.408
 21
-43.9569
 31
0.0
  0
INSERT
  5
167
100
AcDbEntity
  8
1
  6
CONTINUOUS
 62
     1
100
AcDbBlockReference
  2
LDR
 10
1020.1175
 20
-42.7569
 30
0.0
 41
240.0
 42
240.0
 50
359.809827
210
0.0
220
0.0
230
1.0
  0
INSERT
  5
168
100
AcDbEntity
  8
1
  6
CONTINUOUS
 62
     1
100
AcDbBlockReference
  2
LDR
 10
1020.1175
 20
-42.7569
 30
0.0
 41
240.0
 42
240.0
 50
359.809827
210
0.0
220
0.0
230
1.0
  0
INSERT
  5
169
100
AcDbEntity
  8
1
  6
CONTINUOUS
 62
     1
100
AcDbBlockReference
  2
LDR
 10
1001.408
 20
-42.6948
 30
0.0
 41
240.0
 42
240.0
 50
179.809827
210
0.0
220
0.0
230
1.0
  0
INSERT
  5
16A
100
AcDbEntity
  8
1
  6
CONTINUOUS
 62
     1
100
AcDbBlockReference
  2
LDR
 10
1001.408
 20
-42.6948
 30
0.0
 41
240.0
 42
240.0
 50
179.809827
210
0.0
220
0.0
230
1.0
  0
LWPOLYLINE
  5
16B
100
AcDbEntity
  8
1
  6
CONTINUOUS
 62
     7
100
AcDbPolyline
 90
        4
 70
     1
 10
1053.907
 20
-38.8208
 10
1073.773
 20
-38.8012
 10
1073.764
 20
-29.7463
 10
1053.898
 20
-29.766
  0
LWPOLYLINE
  5
16C
100
AcDbEntity
  8
1
  6
CONTINUOUS
 62
     7
100
AcDbPolyline
 90
        4
 70
     1
 10
1053.122
 20
-29.2905
 10
1053.1023
 20
-9.4245
 10
1044.0475
 20
-9.4336
 10
1044.0672
 20
-29.2995
  0
INSERT
  5
16D
100
AcDbEntity
  8
1
  6
CONTINUOUS
 62
     1
100
AcDbBlockReference
  2
ARO
 10
1055.3685
 20
-34.1116
 30
0.0
 41
240.000001
 42
-240.000001
 50
180.056735
210
0.0
220
0.0
230
1.0
  0
INSERT
  5
16E
100
AcDbEntity
  8
1
  6
CONTINUOUS
 62
     1
100
AcDbBlockReference
  2
2SPT
 10
1045.9714
 20
-32.6583
 30
0.0
 41
240.000003
 42
-240.000003
 50
179.945119
210
0.0
220
0.0
230
1.0
  0
INSERT
  5
16F
100
AcDbEntity
  8
1
  6
CONTINUOUS
 62
     1
100
AcDbBlockReference
  2
2SPT
 10
1041.6245
 20
-29.576
 30
0.0
 41
240.000003
 42
-240.000003
 50
89.945119
210
0.0
220
0.0
230
1.0
  0
INSERT
  5
170
100
AcDbEntity
  8
1
  6
CONTINUOUS
 62
     1
100
AcDbBlockReference
  2
ARO
 10
1048.4128
 20
-27.829
 30
0.0
 41
240.000001
 42
-240.000001
 50
270.056735
210
0.0
220
0.0
230
1.0
  0
INSERT
  5
171
100
AcDbEntity
  8
1
  6
CONTINUOUS
 62
     1
100
AcDbBlockReference
  2
ARO
 10
1138.5383
 20
-124.7991
 30
0.0
 41
240.000003
 42
-240.000003
 50
156.082314
210
0.0
220
0.0
230
1.0
  0
INSERT
  5
172
100
AcDbEntity
  8
1
  6
CONTINUOUS
 62
     1
100
AcDbBlockReference
  2
2SPT
 10
1076.484
 20
-108.849
 30
0.0
 41
240.000001
 42
-240.000001
 50
4.495154
210
0.0
220
0.0
230
1.0
  0
INSERT
  5
173
100
AcDbEntity
  8
1
  6
CONTINUOUS
 62
     1
100
AcDbBlockReference
  2
2SPT
 10
1143.8951
 20
-119.0177
 30
0.0
 41
240.000004
 42
-240.000004
 50
337.923049
210
0.0
220
0.0
230
1.0
  0
LWPOLYLINE
  5
174
100
AcDbEntity
  8
1
  6
CONTINUOUS
 62
     7
100
AcDbPolyline
 90
        4
 70
     1
 10
1083.0207
 20
-120.3927
 10
1063.2454
 20
-122.289
 10
1062.3811
 20
-113.2754
 10
1082.1565
 20
-111.3791
  0
INSERT
  5
175
100
AcDbEntity
  8
1
  6
CONTINUOUS
 62
     1
100
AcDbBlockReference
  2
ARO
 10
1081.1119
 20
-115.8463
 30
0.0
 41
240.000001
 42
240.000001
 50
5.477447
210
0.0
220
0.0
230
1.0
  0
ARC
  5
176
100
AcDbEntity
  8
1
  6
DASHED
 62
     1
100
AcDbCircle
 10
1009.372691
 20
-82.045136
 30
0.0
 40
53.610855
210
0.0
220
0.0
230
1.0
100
AcDbArc
 50
79.712086
 51
93.542008
  0
LINE
  5
177
100
AcDbEntity
  8
1
  6
DASHED
 62
     1
100
AcDbLine
 10
986.6431
 20
-28.6352
 30
0.0
 11
1006.0606
 21
-28.5434
 31
0.0
  0
LINE
  5
178
100
AcDbEntity
  8
1
  6
CONTINUOUS
 62
     1
100
AcDbLine
 10
1159.557
 20
-84.9747
 30
0.0
 11
1163.378
 21
-88.7472
 31
0.0
  0
LINE
  5
179
100
AcDbEntity
  8
1
  6
CONTINUOUS
 62
     1
100
AcDbLine
 10
1167.2177
 20
-92.5378
 30
0.0
 11
1171.039
 21
-96.3101
 31
0.0
  0
LINE
  5
17A
100
AcDbEntity
  8
1
  6
CONTINUOUS
 62
     1
100
AcDbLine
 10
1163.378
 20
-88.7472
 30
0.0
 11
1166.246
 21
-87.4819
 31
0.0
  0
LINE
  5
17B
100
AcDbEntity
  8
1
  6
CONTINUOUS
 62
     1
100
AcDbLine
 10
1166.246
 20
-87.4819
 30
0.0
 11
1164.1646
 21
-93.8009
 31
0.0
  0
LINE
  5
17C
100
AcDbEntity
  8
1
  6
CONTINUOUS
 62
     1
100
AcDbLine
 10
1164.1646
 20
-93.8009
 30
0.0
 11
1167.2177
 21
-92.5378
 31
0.0
  0
LINE
  5
17D
100
AcDbEntity
  8
1
  6
CONTINUOUS
 62
     1
100
AcDbLine
 10
1164.9526
 20
-78.53
 30
0.0
 11
1168.7736
 21
-82.3025
 31
0.0
  0
LINE
  5
17E
100
AcDbEntity
  8
1
  6
CONTINUOUS
 62
     1
100
AcDbLine
 10
1172.6133
 20
-86.0931
 30
0.0
 11
1176.4346
 21
-89.8654
 31
0.0
  0
LINE
  5
17F
100
AcDbEntity
  8
1
  6
CONTINUOUS
 62
     1
100
AcDbLine
 10
1168.7736
 20
-82.3025
 30
0.0
 11
1171.6416
 21
-81.0372
 31
0.0
  0
LINE
  5
180
100
AcDbEntity
  8
1
  6
CONTINUOUS
 62
     1
100
AcDbLine
 10
1171.6416
 20
-81.0372
 30
0.0
 11
1169.5602
 21
-87.3562
 31
0.0
  0
LINE
  5
181
100
AcDbEntity
  8
1
  6
CONTINUOUS
 62
     1
100
AcDbLine
 10
1169.5602
 20
-87.3562
 30
0.0
 11
1172.6133
 21
-86.0931
 31
0.0
  0
ARC
  5
182
100
AcDbEntity
  8
1
  6
DASHED
 62
     1
100
AcDbCircle
 10
805.29096
 20
-149.154358
 30
0.0
 40
98.092757
210
0.0
220
0.0
230
1.0
100
AcDbArc
 50
83.099611
 51
94.857689
  0
ARC
  5
183
100
AcDbEntity
  8
1
  6
CONTINUOUS
 62
     1
100
AcDbCircle
 10
805.29096
 20
-149.154358
 30
0.0
 40
98.092757
210
0.0
220
0.0
230
1.0
100
AcDbArc
 50
69.337047
 51
82.909714
  0
ARC
  5
184
100
AcDbEntity
  8
1
  6
DASHED
 62
     1
100
AcDbCircle
 10
955.98264
 20
-32.508442
 30
0.0
 40
98.092757
210
0.0
220
0.0
230
1.0
100
AcDbArc
 50
263.175533
 51
274.857689
  0
ARC
  5
185
100
AcDbEntity
  8
1
  6
CONTINUOUS
 62
     1
100
AcDbCircle
 10
955.74884
 20
-24.346242
 30
0.0
 40
106.192757
210
0.0
220
0.0
230
1.0
100
AcDbArc
 50
249.337047
 51
263.655142
  0
LWPOLYLINE
  5
186
100
AcDbEntity
  8
1
  6
CONTINUOUS
 62
     7
100
AcDbPolyline
 90
        5
 70
     0
 10
804.3233
 20
-79.9669
 10
796.6534
 20
-72.3636
 10
804.2567
 20
-64.6936
 10
811.9268
 20
-72.297
 10
804.3233
 20
-79.9669
  0
INSERT
  5
187
100
AcDbEntity
  8
4
  6
CONTINUOUS
 62
     1
100
AcDbBlockReference
  2
1SPT
 10
799.3723
 20
-58.38
 30
0.0
 41
240.0
 42
240.0
 50
269.540432
210
0.0
220
0.0
230
1.0
  0
TEXT
  5
188
100
AcDbEntity
  8
1
  6
CONTINUOUS
 62
     7
100
AcDbText
 10
789.8124
 20
-69.8251
 30
0.0
 40
1.2
  1
M.P.H.
 50
270.062486
  7
MONOTXT
210
0.0
220
0.0
230
1.0
100
AcDbText
  0
LWPOLYLINE
  5
189
100
AcDbEntity
  8
1
  6
CONTINUOUS
 62
     7
100
AcDbPolyline
 90
        5
 70
     0
 10
789.145
 20
-75.4665
 10
789.1175
 20
-69.1665
 10
795.4175
 20
-69.1391
 10
795.445
 20
-75.439
 10
789.145
 20
-75.4665
  0
LINE
  5
18A
100
AcDbEntity
  8
1
  6
CONTINUOUS
 62
     7
100
AcDbLine
 10
817.5864
 20
-57.1141
 30
0.0
 11
817.5864
 21
-64.243
 31
0.0
  0
LINE
  5
18B
100
AcDbEntity
  8
1
  6
CONTINUOUS
 62
     7
100
AcDbLine
 10
798.8769
 20
-61.4961
 30
0.0
 11
798.8769
 21
-64.243
 31
0.0
  0
INSERT
  5
18C
100
AcDbEntity
  8
1
  6
CONTINUOUS
 62
     1
100
AcDbBlockReference
  2
LDR
 10
817.5864
 20
-63.043
 30
0.0
 41
240.0
 42
240.0
 50
359.809827
210
0.0
220
0.0
230
1.0
  0
INSERT
  5
18D
100
AcDbEntity
  8
1
  6
CONTINUOUS
 62
     1
100
AcDbBlockReference
  2
LDR
 10
817.5864
 20
-63.043
 30
0.0
 41
240.0
 42
240.0
 50
359.809827
210
0.0
220
0.0
230
1.0
  0
INSERT
  5
18E
100
AcDbEntity
  8
1
  6
CONTINUOUS
 62
     1
100
AcDbBlockReference
  2
LDR
 10
798.8769
 20
-62.9809
 30
0.0
 41
240.0
 42
240.0
 50
179.809827
210
0.0
220
0.0
230
1.0
  0
INSERT
  5
18F
100
AcDbEntity
  8
1
  6
CONTINUOUS
 62
     1
100
AcDbBlockReference
  2
LDR
 10
798.8769
 20
-62.9809
 30
0.0
 41
240.0
 42
240.0
 50
179.809827
210
0.0
220
0.0
230
1.0
  0
LINE
  5
190
100
AcDbEntity
  8
1
  6
CONTINUOUS
 62
     7
100
AcDbLine
 10
944.2163
 20
-124.4948
 30
0.0
 11
944.2163
 21
-117.3659
 31
0.0
  0
LWPOLYLINE
  5
191
100
AcDbEntity
  8
1
  6
CONTINUOUS
 62
     7
100
AcDbPolyline
 90
        5
 70
     0
 10
957.4794
 20
-101.642
 10
965.1493
 20
-109.2453
 10
957.546
 20
-116.9153
 10
949.8759
 20
-109.3119
 10
957.4794
 20
-101.642
  0
INSERT
  5
192
100
AcDbEntity
  8
4
  6
CONTINUOUS
 62
     1
100
AcDbBlockReference
  2
1SPT
 10
962.4304
 20
-123.2289
 30
0.0
 41
240.0
 42
240.0
 50
89.540432
210
0.0
220
0.0
230
1.0
  0
TEXT
  5
193
100
AcDbEntity
  8
1
  6
CONTINUOUS
 62
     7
100
AcDbText
 10
971.9903
 20
-111.7838
 30
0.0
 40
1.2
  1
M.P.H.
 50
90.062486
  7
MONOTXT
210
0.0
220
0.0
230
1.0
100
AcDbText
  0
LWPOLYLINE
  5
194
100
AcDbEntity
  8
1
  6
CONTINUOUS
 62
     7
100
AcDbPolyline
 90
        5
 70
     0
 10
972.6577
 20
-106.1424
 10
972.6852
 20
-112.4424
 10
966.3852
 20
-112.4698
 10
966.3577
 20
-106.1699
 10
972.6577
 20
-106.1424
  0
LINE
  5
195
100
AcDbEntity
  8
1
  6
CONTINUOUS
 62
     7
100
AcDbLine
 10
962.9258
 20
-120.1128
 30
0.0
 11
962.9258
 21
-117.3659
 31
0.0
  0
INSERT
  5
196
100
AcDbEntity
  8
1
  6
CONTINUOUS
 62
     1
100
AcDbBlockReference
  2
LDR
 10
944.2163
 20
-118.5659
 30
0.0
 41
240.0
 42
240.0
 50
179.809827
210
0.0
220
0.0
230
1.0
  0
INSERT
  5
197
100
AcDbEntity
  8
1
  6
CONTINUOUS
 62
     1
100
AcDbBlockReference
  2
LDR
 10
944.2163
 20
-118.5659
 30
0.0
 41
240.0
 42
240.0
 50
179.809827
210
0.0
220
0.0
230
1.0
  0
INSERT
  5
198
100
AcDbEntity
  8
1
  6
CONTINUOUS
 62
     1
100
AcDbBlockReference
  2
LDR
 10
962.9258
 20
-118.628
 30
0.0
 41
240.0
 42
240.0
 50
359.809827
210
0.0
220
0.0
230
1.0
  0
INSERT
  5
199
100
AcDbEntity
  8
1
  6
CONTINUOUS
 62
     1
100
AcDbBlockReference
  2
LDR
 10
962.9258
 20
-118.628
 30
0.0
 41
240.0
 42
240.0
 50
359.809827
210
0.0
220
0.0
230
1.0
  0
ARC
  5
19A
100
AcDbEntity
  8
1
  6
DASHED
 62
     1
100
AcDbCircle
 10
688.42193
 20
-219.840066
 30
0.0
 40
145.402501
210
0.0
220
0.0
230
1.0
100
AcDbArc
 50
106.655131
 51
125.842761
  0
ARC
  5
19B
100
AcDbEntity
  8
1
  6
CONTINUOUS
 62
     1
100
AcDbCircle
 10
688.42193
 20
-219.840066
 30
0.0
 40
145.402501
210
0.0
220
0.0
230
1.0
100
AcDbArc
 50
54.157239
 51
106.629706
  0
ARC
  5
19C
100
AcDbEntity
  8
1
  6
DASHED
 62
     1
100
AcDbCircle
 10
688.03547
 20
-220.375066
 30
0.0
 40
145.402501
210
0.0
220
0.0
230
1.0
100
AcDbArc
 50
54.157239
 51
73.344869
  0
INSERT
  5
19D
100
AcDbEntity
  8
4
  6
CONTINUOUS
 62
     1
100
AcDbBlockReference
  2
1SPT
 10
612.2522
 20
-105.5473
 30
0.0
 41
240.000002
 42
240.000002
 50
307.751766
210
0.0
220
0.0
230
1.0
  0
LINE
  5
19E
100
AcDbEntity
  8
1
  6
CONTINUOUS
 62
     7
100
AcDbLine
 10
613.7464
 20
-108.3352
 30
0.0
 11
619.7094
 21
-116.6703
 31
0.0
  0
LINE
  5
19F
100
AcDbEntity
  8
1
  6
CONTINUOUS
 62
     7
100
AcDbLine
 10
650.547
 20
-86.3334
 30
0.0
 11
658.9304
 21
-99.3763
 31
0.0
  0
INSERT
  5
1A0
100
AcDbEntity
  8
1
  6
CONTINUOUS
 62
     1
100
AcDbBlockReference
  2
LDR
 10
658.2816
 20
-98.3669
 30
0.0
 41
240.000002
 42
240.000002
 50
13.934997
210
0.0
220
0.0
230
1.0
  0
INSERT
  5
1A1
100
AcDbEntity
  8
1
  6
CONTINUOUS
 62
     1
100
AcDbBlockReference
  2
LDR
 10
658.2816
 20
-98.3669
 30
0.0
 41
240.000002
 42
240.000002
 50
13.934997
210
0.0
220
0.0
230
1.0
  0
INSERT
  5
1A2
100
AcDbEntity
  8
1
  6
CONTINUOUS
 62
     1
100
AcDbBlockReference
  2
LDR
 10
619.0113
 20
-115.6944
 30
0.0
 41
239.999999
 42
239.999999
 50
213.682537
210
0.0
220
0.0
230
1.0
  0
LWPOLYLINE
  5
1A3
100
AcDbEntity
  8
1
  6
CONTINUOUS
 62
     7
100
AcDbPolyline
 90
        5
 70
     0
 10
627.0395
 20
-131.738
 10
616.8617
 20
-128.1254
 10
620.4743
 20
-117.9475
 10
630.6523
 20
-121.5602
 10
627.0395
 20
-131.738
  0
TEXT
  5
1A4
100
AcDbEntity
  8
1
  6
CONTINUOUS
 62
     7
100
AcDbText
 10
609.591
 20
-128.7422
 30
0.0
 40
1.2
  1
M.P.H.
 50
295.270081
  7
MONOTXT
210
0.0
220
0.0
230
1.0
100
AcDbText
  0
LWPOLYLINE
  5
1A5
100
AcDbEntity
  8
1
  6
CONTINUOUS
 62
     7
100
AcDbPolyline
 90
        5
 70
     0
 10
611.3899
 20
-134.1306
 10
608.6818
 20
-128.4422
 10
614.3702
 20
-125.7343
 10
617.0782
 20
-131.4225
 10
611.3899
 20
-134.1306
  0
POLYLINE
  5
1A6
100
AcDbEntity
  8
1
  6
CONTINUOUS
 62
     1
100
AcDb2dPolyline
 66
     1
 10
0.0
 20
0.0
 30
0.0
  0
VERTEX
  5
1A7
100
AcDbEntity
  8
1
  6
CONTINUOUS
 62
     1
100
AcDbVertex
100
AcDb2dVertex
 10
626.5708
 20
-123.9141
 30
0.0
 42
0.388061
  0
VERTEX
  5
1A8
100
AcDbEntity
  8
1
  6
CONTINUOUS
 62
     1
100
AcDbVertex
100
AcDb2dVertex
 10
619.5509
 20
-124.0293
 30
0.0
  0
VERTEX
  5
1A9
100
AcDbEntity
  8
1
  6
CONTINUOUS
 62
     1
100
AcDbVertex
100
AcDb2dVertex
 10
620.164479
 20
-125.317855
 30
0.0
 42
-0.376988
  0
VERTEX
  5
1AA
100
AcDbEntity
  8
1
  6
CONTINUOUS
 62
     1
100
AcDbVertex
100
AcDb2dVertex
 10
625.2185
 20
-124.5578
 30
0.0
  0
VERTEX
  5
1AB
100
AcDbEntity
  8
1
  6
CONTINUOUS
 62
     1
100
AcDbVertex
100
AcDb2dVertex
 10
624.2739
 20
-125.0076
 30
0.0
  0
VERTEX
  5
1AC
100
AcDbEntity
  8
1
  6
CONTINUOUS
 62
     1
100
AcDbVertex
100
AcDb2dVertex
 10
627.6003
 20
-127.863
 30
0.0
  0
VERTEX
  5
1AD
100
AcDbEntity
  8
1
  6
CONTINUOUS
 62
     1
100
AcDbVertex
100
AcDb2dVertex
 10
627.5242
 20
-123.4601
 30
0.0
  0
VERTEX
  5
1AE
100
AcDbEntity
  8
1
  6
CONTINUOUS
 62
     1
100
AcDbVertex
100
AcDb2dVertex
 10
626.5708
 20
-123.9141
 30
0.0
  0
SEQEND
  5
1AF
100
AcDbEntity
  8
1
  6
CONTINUOUS
 62
     1
  0
INSERT
  5
1B0
100
AcDbEntity
  8
4
  6
CONTINUOUS
 62
     1
100
AcDbBlockReference
  2
1SPT
 10
770.5753
 20
-91.8047
 30
0.0
 41
239.999999
 42
239.999999
 50
72.066997
210
0.0
220
0.0
230
1.0
  0
LINE
  5
1B1
100
AcDbEntity
  8
1
  6
CONTINUOUS
 62
     7
100
AcDbLine
 10
772.0356
 20
-88.999
 30
0.0
 11
775.4577
 21
-79.6497
 31
0.0
  0
LINE
  5
1B2
100
AcDbEntity
  8
1
  6
CONTINUOUS
 62
     7
100
AcDbLine
 10
731.2596
 20
-75.3927
 30
0.0
 11
736.8937
 21
-62.0893
 31
0.0
  0
LWPOLYLINE
  5
1B3
100
AcDbEntity
  8
1
  6
CONTINUOUS
 62
     7
100
AcDbPolyline
 90
        5
 70
     0
 10
769.8842
 20
-58.1662
 10
772.638
 20
-68.6091
 10
762.1951
 20
-71.363
 10
759.4412
 20
-60.9199
 10
769.8842
 20
-58.1662
  0
TEXT
  5
1B4
100
AcDbEntity
  8
1
  6
CONTINUOUS
 62
     7
100
AcDbText
 10
777.2463
 20
-74.2666
 30
0.0
 40
1.2
  1
M.P.H.
 50
59.585311
  7
MONOTXT
210
0.0
220
0.0
230
1.0
100
AcDbText
  0
LWPOLYLINE
  5
1B5
100
AcDbEntity
  8
1
  6
CONTINUOUS
 62
     7
100
AcDbPolyline
 90
        5
 70
     0
 10
780.6828
 20
-69.7431
 10
777.5111
 20
-75.1866
 10
772.0677
 20
-72.015
 10
775.2392
 20
-66.5716
 10
780.6828
 20
-69.7431
  0
POLYLINE
  5
1B6
100
AcDbEntity
  8
1
  6
CONTINUOUS
 62
     1
100
AcDb2dPolyline
 66
     1
 10
0.0
 20
0.0
 30
0.0
  0
VERTEX
  5
1B7
100
AcDbEntity
  8
1
  6
CONTINUOUS
 62
     1
100
AcDbVertex
100
AcDb2dVertex
 10
763.796541
 20
-63.575974
 30
0.0
 42
-0.388061
  0
VERTEX
  5
1B8
100
AcDbEntity
  8
1
  6
CONTINUOUS
 62
     1
100
AcDbVertex
100
AcDb2dVertex
 10
770.6685
 20
-65.0146
 30
0.0
  0
VERTEX
  5
1B9
100
AcDbEntity
  8
1
  6
CONTINUOUS
 62
     1
100
AcDbVertex
100
AcDb2dVertex
 10
769.822544
 20
-66.164172
 30
0.0
 42
0.376988
  0
VERTEX
  5
1BA
100
AcDbEntity
  8
1
  6
CONTINUOUS
 62
     1
100
AcDbVertex
100
AcDb2dVertex
 10
765.003
 20
-64.4634
 30
0.0
  0
VERTEX
  5
1BB
100
AcDbEntity
  8
1
  6
CONTINUOUS
 62
     1
100
AcDbVertex
100
AcDb2dVertex
 10
765.8457
 20
-65.0835
 30
0.0
  0
VERTEX
  5
1BC
100
AcDbEntity
  8
1
  6
CONTINUOUS
 62
     1
100
AcDbVertex
100
AcDb2dVertex
 10
762.0399
 20
-67.2594
 30
0.0
  0
VERTEX
  5
1BD
100
AcDbEntity
  8
1
  6
CONTINUOUS
 62
     1
100
AcDbVertex
100
AcDb2dVertex
 10
762.946
 20
-62.9501
 30
0.0
  0
VERTEX
  5
1BE
100
AcDbEntity
  8
1
  6
CONTINUOUS
 62
     1
100
AcDbVertex
100
AcDb2dVertex
 10
763.7965
 20
-63.576
 30
0.0
  0
SEQEND
  5
1BF
100
AcDbEntity
  8
1
  6
CONTINUOUS
 62
     1
  0
INSERT
  5
1C0
100
AcDbEntity
  8
1
  6
CONTINUOUS
 62
     1
100
AcDbBlockReference
  2
LDR
 10
736.4258
 20
-63.1943
 30
0.0
 41
239.999997
 42
239.999997
 50
162.962403
210
0.0
220
0.0
230
1.0
  0
INSERT
  5
1C1
100
AcDbEntity
  8
1
  6
CONTINUOUS
 62
     1
100
AcDbBlockReference
  2
LDR
 10
736.4258
 20
-63.1943
 30
0.0
 41
239.999997
 42
239.999997
 50
162.962403
210
0.0
220
0.0
230
1.0
  0
INSERT
  5
1C2
100
AcDbEntity
  8
1
  6
CONTINUOUS
 62
     1
100
AcDbBlockReference
  2
LDR
 10
775.0453
 20
-80.7766
 30
0.0
 41
240.0
 42
240.0
 50
328.081016
210
0.0
220
0.0
230
1.0
  0
INSERT
  5
1C3
100
AcDbEntity
  8
1
  6
CONTINUOUS
 62
     1
100
AcDbBlockReference
  2
LDR
 10
775.0453
 20
-80.7766
 30
0.0
 41
240.0
 42
240.0
 50
328.081016
210
0.0
220
0.0
230
1.0
  0
TEXT
  5
1C4
100
AcDbEntity
  8
1
  6
CONTINUOUS
 62
     7
100
AcDbText
 10
628.1618
 20
62.5146
 30
0.0
 40
6.0
  1
*
 50
55.599072
  7
MONOTXT
 11
625.686487
 21
64.209541
 31
0.0
210
0.0
220
0.0
230
1.0
100
AcDbText
 73
     2
  0
ARC
  5
1C5
100
AcDbEntity
  8
1
  6
CONTINUOUS
 62
     7
100
AcDbCircle
 10
744.781745
 20
-17.339548
 30
0.0
 40
144.339638
210
0.0
220
0.0
230
1.0
100
AcDbArc
 50
146.789764
 51
152.242044
  0
ARC
  5
1C6
100
AcDbEntity
  8
1
  6
CONTINUOUS
 62
     7
100
AcDbCircle
 10
744.781745
 20
-17.339548
 30
0.0
 40
144.339638
210
0.0
220
0.0
230
1.0
100
AcDbArc
 50
138.956111
 51
143.490256
  0
TEXT
  5
1C7
100
AcDbEntity
  8
1
  6
CONTINUOUS
 62
     7
100
AcDbText
 10
748.4484
 20
82.9167
 30
0.0
 40
6.0
  1
*
 50
307.634681
  7
MONOTXT
 11
750.824161
 21
84.748574
 31
0.0
210
0.0
220
0.0
230
1.0
100
AcDbText
 73
     2
  0
ARC
  5
1C8
100
AcDbEntity
  8
1
  6
CONTINUOUS
 62
     7
100
AcDbCircle
 10
636.51873
 20
-3.388736
 30
0.0
 40
144.339638
210
0.0
220
0.0
230
1.0
100
AcDbArc
 50
38.82535
 51
44.277628
  0
ARC
  5
1C9
100
AcDbEntity
  8
1
  6
CONTINUOUS
 62
     7
100
AcDbCircle
 10
636.51873
 20
-3.388736
 30
0.0
 40
144.339638
210
0.0
220
0.0
230
1.0
100
AcDbArc
 50
30.991694
 51
35.525842
  0
TEXT
  5
1CA
100
AcDbEntity
  8
1
  6
CONTINUOUS
 62
     7
100
AcDbText
 10
810.2343
 20
128.3147
 30
0.0
 40
6.0
  1
*
 50
354.584811
  7
MONOTXT
 11
810.517417
 21
131.301311
 31
0.0
210
0.0
220
0.0
230
1.0
100
AcDbText
 73
     2
  0
ARC
  5
1CB
100
AcDbEntity
  8
1
  6
CONTINUOUS
 62
     7
100
AcDbCircle
 10
759.228313
 20
-409.74968
 30
0.0
 40
543.476574
210
0.0
220
0.0
230
1.0
100
AcDbArc
 50
84.901081
 51
86.866544
  0
ARC
  5
1CC
100
AcDbEntity
  8
1
  6
CONTINUOUS
 62
     7
100
AcDbCircle
 10
759.228313
 20
-409.74968
 30
0.0
 40
543.476574
210
0.0
220
0.0
230
1.0
100
AcDbArc
 50
82.303069
 51
84.024494
  0
TEXT
  5
1CD
100
AcDbEntity
  8
1
  6
CONTINUOUS
 62
     7
100
AcDbText
 10
949.7599
 20
38.9597
 30
0.0
 40
6.0
  1
*
 50
354.584811
  7
MONOTXT
 11
950.043017
 21
41.946311
 31
0.0
210
0.0
220
0.0
230
1.0
100
AcDbText
 73
     2
  0
ARC
  5
1CE
100
AcDbEntity
  8
1
  6
CONTINUOUS
 62
     7
100
AcDbCircle
 10
1001.332087
 20
582.99728
 30
0.0
 40
543.476574
210
0.0
220
0.0
230
1.0
100
AcDbArc
 50
265.145128
 51
266.866544
  0
ARC
  5
1CF
100
AcDbEntity
  8
1
  6
CONTINUOUS
 62
     7
100
AcDbCircle
 10
1001.332087
 20
582.99728
 30
0.0
 40
543.476574
210
0.0
220
0.0
230
1.0
100
AcDbArc
 50
262.303069
 51
264.268542
  0
TEXT
  5
1D0
100
AcDbEntity
  8
1
  6
CONTINUOUS
 62
     7
100
AcDbText
 10
999.3136
 20
113.5721
 30
0.0
 40
6.0
  1
*
 50
354.772519
  7
MONOTXT
 11
999.586931
 21
116.559622
 31
0.0
210
0.0
220
0.0
230
1.0
100
AcDbText
 73
     2
  0
ARC
  5
1D1
100
AcDbEntity
  8
1
  6
CONTINUOUS
 62
     7
100
AcDbCircle
 10
950.070613
 20
-424.65658
 30
0.0
 40
543.476574
210
0.0
220
0.0
230
1.0
100
AcDbArc
 50
85.088786
 51
86.866544
  0
ARC
  5
1D2
100
AcDbEntity
  8
1
  6
CONTINUOUS
 62
     7
100
AcDbCircle
 10
950.070613
 20
-424.65658
 30
0.0
 40
543.476574
210
0.0
220
0.0
230
1.0
100
AcDbArc
 50
82.6785
 51
84.212206
  0
TEXT
  5
1D3
100
AcDbEntity
  8
1
  6
CONTINUOUS
 62
     7
100
AcDbText
 10
1335.9604
 20
55.6649
 30
0.0
 40
6.0
  1
*
 50
355.102275
  7
MONOTXT
 11
1336.216532
 21
58.653946
 31
0.0
210
0.0
220
0.0
230
1.0
100
AcDbText
 73
     2
  0
ARC
  5
1D4
100
AcDbEntity
  8
1
  6
CONTINUOUS
 62
     7
100
AcDbCircle
 10
1382.617087
 20
600.14608
 30
0.0
 40
543.476574
210
0.0
220
0.0
230
1.0
100
AcDbArc
 50
265.662589
 51
266.866544
  0
ARC
  5
1D5
100
AcDbEntity
  8
1
  6
CONTINUOUS
 62
     7
100
AcDbCircle
 10
1382.617087
 20
600.14608
 30
0.0
 40
543.476574
210
0.0
220
0.0
230
1.0
100
AcDbArc
 50
263.338011
 51
264.786011
  0
TEXT
  5
1D6
100
AcDbEntity
  8
1
  6
CONTINUOUS
 62
     7
100
AcDbText
 10
1326.6543
 20
-135.1503
 30
0.0
 40
6.0
  1
*
 50
359.809825
  7
MONOTXT
 11
1326.664258
 21
-132.150317
 31
0.0
210
0.0
220
0.0
230
1.0
100
AcDbText
 73
     2
  0
LINE
  5
1D7
100
AcDbEntity
  8
1
  6
CONTINUOUS
 62
     7
100
AcDbLine
 10
1317.3095
 20
-132.1192
 30
0.0
 11
1323.6643
 21
-132.1403
 31
0.0
  0
LINE
  5
1D8
100
AcDbEntity
  8
1
  6
CONTINUOUS
 62
     7
100
AcDbLine
 10
1331.9792
 20
-132.1679
 30
0.0
 11
1336.019
 21
-132.1813
 31
0.0
  0
TEXT
  5
1D9
100
AcDbEntity
  8
1
  6
CONTINUOUS
 62
     7
100
AcDbText
 10
1010.7528
 20
-45.7259
 30
0.0
 40
6.0
  1
*
 50
359.809825
  7
MONOTXT
 11
1010.762758
 21
-42.725917
 31
0.0
210
0.0
220
0.0
230
1.0
100
AcDbText
 73
     2
  0
LINE
  5
1DA
100
AcDbEntity
  8
1
  6
CONTINUOUS
 62
     7
100
AcDbLine
 10
1020.1175
 20
-42.7569
 30
0.0
 11
1016.0777
 21
-42.7435
 31
0.0
  0
LINE
  5
1DB
100
AcDbEntity
  8
1
  6
CONTINUOUS
 62
     7
100
AcDbLine
 10
1007.7628
 20
-42.7159
 30
0.0
 11
1001.408
 21
-42.6948
 31
0.0
  0
TEXT
  5
1DC
100
AcDbEntity
  8
1
  6
CONTINUOUS
 62
     7
100
AcDbText
 10
953.5611
 20
-121.597
 30
0.0
 40
6.0
  1
*
 50
359.809825
  7
MONOTXT
 11
953.571058
 21
-118.597017
 31
0.0
210
0.0
220
0.0
230
1.0
100
AcDbText
 73
     2
  0
LINE
  5
1DD
100
AcDbEntity
  8
1
  6
CONTINUOUS
 62
     7
100
AcDbLine
 10
944.2163
 20
-118.5659
 30
0.0
 11
950.5711
 21
-118.587
 31
0.0
  0
LINE
  5
1DE
100
AcDbEntity
  8
1
  6
CONTINUOUS
 62
     7
100
AcDbLine
 10
958.886
 20
-118.6146
 30
0.0
 11
962.9258
 21
-118.628
 31
0.0
  0
TEXT
  5
1DF
100
AcDbEntity
  8
1
  6
CONTINUOUS
 62
     7
100
AcDbText
 10
808.2217
 20
-66.012
 30
0.0
 40
6.0
  1
*
 50
359.809825
  7
MONOTXT
 11
808.231658
 21
-63.012017
 31
0.0
210
0.0
220
0.0
230
1.0
100
AcDbText
 73
     2
  0
LINE
  5
1E0
100
AcDbEntity
  8
1
  6
CONTINUOUS
 62
     7
100
AcDbLine
 10
817.5864
 20
-63.043
 30
0.0
 11
813.5466
 21
-63.0296
 31
0.0
  0
LINE
  5
1E1
100
AcDbEntity
  8
1
  6
CONTINUOUS
 62
     7
100
AcDbLine
 10
805.2317
 20
-63.002
 30
0.0
 11
798.8769
 21
-62.9809
 31
0.0
  0
TEXT
  5
1E2
100
AcDbEntity
  8
1
  6
CONTINUOUS
 62
     7
100
AcDbText
 10
755.0641
 20
-73.4603
 30
0.0
 40
6.0
  1
*
 50
335.521719
  7
MONOTXT
 11
756.307145
 21
-70.729945
 31
0.0
210
0.0
220
0.0
230
1.0
100
AcDbText
 73
     2
  0
ARC
  5
1E3
100
AcDbEntity
  8
1
  6
CONTINUOUS
 62
     7
100
AcDbCircle
 10
688.42193
 20
-219.840066
 30
0.0
 40
163.83604
210
0.0
220
0.0
230
1.0
100
AcDbArc
 50
66.570719
 51
72.962403
  0
ARC
  5
1E4
100
AcDbEntity
  8
1
  6
CONTINUOUS
 62
     7
100
AcDbCircle
 10
688.42193
 20
-219.840066
 30
0.0
 40
163.83604
210
0.0
220
0.0
230
1.0
100
AcDbArc
 50
58.081017
 51
63.663625
  0
TEXT
  5
1E5
100
AcDbEntity
  8
1
  6
CONTINUOUS
 62
     7
100
AcDbText
 10
639.1092
 20
-108.0793
 30
0.0
 40
6.0
  1
*
 50
23.808756
  7
MONOTXT
 11
637.898145
 21
-105.334606
 31
0.0
210
0.0
220
0.0
230
1.0
100
AcDbText
 73
     2
  0
ARC
  5
1E6
100
AcDbEntity
  8
1
  6
CONTINUOUS
 62
     7
100
AcDbCircle
 10
688.42193
 20
-219.840066
 30
0.0
 40
125.15656
210
0.0
220
0.0
230
1.0
100
AcDbArc
 50
115.181842
 51
123.682536
  0
ARC
  5
1E7
100
AcDbEntity
  8
1
  6
CONTINUOUS
 62
     7
100
AcDbCircle
 10
688.42193
 20
-219.840066
 30
0.0
 40
125.15656
210
0.0
220
0.0
230
1.0
100
AcDbArc
 50
103.934997
 51
111.377036
  0
TEXT
  5
1E8
100
AcDbEntity
  8
1
  6
CONTINUOUS
 62
     7
100
AcDbText
 10
666.0936
 20
80.8793
 30
0.0
 40
6.0
  1
*
  7
MONOTXT
210
0.0
220
0.0
230
1.0
100
AcDbText
  0
TEXT
  5
1E9
100
AcDbEntity
  8
1
  6
CONTINUOUS
 62
     7
100
AcDbText
 10
668.0833
 20
135.2337
 30
0.0
 40
3.0
  1
W1-6
  7
MONOTXT
 72
     4
 11
673.0085
 21
136.7337
 31
0.0
210
0.0
220
0.0
230
1.0
100
AcDbText
  0
LINE
  5
1EA
100
AcDbEntity
  8
1
  6
CONTINUOUS
 62
     7
100
AcDbLine
 10
645.9025
 20
128.3103
 30
0.0
 11
666.3856
 21
136.1502
 31
0.0
  0
LINE
  5
1EB
100
AcDbEntity
  8
1
  6
CONTINUOUS
 62
     7
100
AcDbLine
 10
703.0597
 20
127.9087
 30
0.0
 11
679.9966
 21
135.9557
 31
0.0
  0
INSERT
  5
1EC
100
AcDbEntity
  8
1
  6
CONTINUOUS
 62
     1
100
AcDbBlockReference
  2
LDR
 10
645.9025
 20
128.3103
 30
0.0
 41
240.000001
 42
240.000001
 50
200.944332
210
0.0
220
0.0
230
1.0
  0
INSERT
  5
1ED
100
AcDbEntity
  8
1
  6
CONTINUOUS
 62
     1
100
AcDbBlockReference
  2
LDR
 10
645.9025
 20
128.3103
 30
0.0
 41
240.000001
 42
240.000001
 50
200.944332
210
0.0
220
0.0
230
1.0
  0
INSERT
  5
1EE
100
AcDbEntity
  8
1
  6
CONTINUOUS
 62
     1
100
AcDbBlockReference
  2
LDR
 10
703.0597
 20
127.9087
 30
0.0
 41
240.0
 42
240.0
 50
340.76549
210
0.0
220
0.0
230
1.0
  0
TEXT
  5
1EF
100
AcDbEntity
  8
1
  6
CONTINUOUS
 62
     7
100
AcDbText
 10
633.3509
 20
41.0661
 30
0.0
 40
3.0
  1
W1-1
  7
MONOTXT
 72
     4
 11
637.6973
 21
42.5661
 31
0.0
210
0.0
220
0.0
230
1.0
100
AcDbText
  0
TEXT
  5
1F0
100
AcDbEntity
  8
1
  6
CONTINUOUS
 62
     7
100
AcDbText
 10
621.783
 20
28.8377
 30
0.0
 40
3.0
  1
W13-1
  7
MONOTXT
 72
     4
 11
627.6176
 21
30.3377
 31
0.0
210
0.0
220
0.0
230
1.0
100
AcDbText
  0
TEXT
  5
1F1
100
AcDbEntity
  8
1
  6
CONTINUOUS
 62
     7
100
AcDbText
 10
607.2899
 20
21.5436
 30
0.0
 40
3.0
  1
(30 OR LESS)
  7
MONOTXT
 72
     4
 11
623.4355
 21
23.0436
 31
0.0
210
0.0
220
0.0
230
1.0
100
AcDbText
  0
TEXT
  5
1F2
100
AcDbEntity
  8
1
  6
CONTINUOUS
 62
     7
100
AcDbText
 10
671.5089
 20
78.646
 30
0.0
 40
3.0
  1
SEE
  7
MONOTXT
 72
     4
 11
675.3475
 21
80.146
 31
0.0
210
0.0
220
0.0
230
1.0
100
AcDbText
  0
TEXT
  5
1F3
100
AcDbEntity
  8
1
  6
CONTINUOUS
 62
     7
100
AcDbText
 10
658.4696
 20
73.246
 30
0.0
 40
3.0
  1
ACCOMPANYING
  7
MONOTXT
 72
     4
 11
675.3475
 21
74.746
 31
0.0
210
0.0
220
0.0
230
1.0
100
AcDbText
  0
TEXT
  5
1F4
100
AcDbEntity
  8
1
  6
CONTINUOUS
 62
     7
100
AcDbText
 10
668.3908
 20
67.846
 30
0.0
 40
3.0
  1
CHART
  7
MONOTXT
 72
     4
 11
675.3474
 21
69.346
 31
0.0
210
0.0
220
0.0
230
1.0
100
AcDbText
  0
TEXT
  5
1F5
100
AcDbEntity
  8
1
  6
CONTINUOUS
 62
     7
100
AcDbText
 10
762.4708
 20
62.9485
 30
0.0
 40
3.0
  1
W13-1
  7
MONOTXT
 72
     4
 11
768.3054
 21
64.4485
 31
0.0
210
0.0
220
0.0
230
1.0
100
AcDbText
  0
TEXT
  5
1F6
100
AcDbEntity
  8
1
  6
CONTINUOUS
 62
     7
100
AcDbText
 10
746.9054
 20
53.08
 30
0.0
 40
3.0
  1
(30 OR LESS)
  7
MONOTXT
 72
     4
 11
763.051
 21
54.58
 31
0.0
210
0.0
220
0.0
230
1.0
100
AcDbText
  0
TEXT
  5
1F7
100
AcDbEntity
  8
1
  6
CONTINUOUS
 62
     7
100
AcDbText
 10
761.1709
 20
90.1941
 30
0.0
 40
3.0
  1
W1-1
  7
MONOTXT
 72
     4
 11
765.5173
 21
91.6941
 31
0.0
210
0.0
220
0.0
230
1.0
100
AcDbText
  0
TEXT
  5
1F8
100
AcDbEntity
  8
1
  6
CONTINUOUS
 62
     7
100
AcDbText
 10
913.8522
 20
98.383
 30
0.0
 40
3.0
  1
SEE
  7
MONOTXT
 72
     4
 11
917.6908
 21
99.883
 31
0.0
210
0.0
220
0.0
230
1.0
100
AcDbText
  0
TEXT
  5
1F9
100
AcDbEntity
  8
1
  6
CONTINUOUS
 62
     7
100
AcDbText
 10
900.8129
 20
92.983
 30
0.0
 40
3.0
  1
ACCOMPANYING
  7
MONOTXT
 72
     4
 11
917.6908
 21
94.483
 31
0.0
210
0.0
220
0.0
230
1.0
100
AcDbText
  0
TEXT
  5
1FA
100
AcDbEntity
  8
1
  6
CONTINUOUS
 62
     7
100
AcDbText
 10
910.7341
 20
87.583
 30
0.0
 40
3.0
  1
CHART
  7
MONOTXT
 72
     4
 11
917.6907
 21
89.083
 31
0.0
210
0.0
220
0.0
230
1.0
100
AcDbText
  0
TEXT
  5
1FB
100
AcDbEntity
  8
1
  6
CONTINUOUS
 62
     7
100
AcDbText
 10
908.4369
 20
100.6163
 30
0.0
 40
6.0
  1
*
  7
MONOTXT
210
0.0
220
0.0
230
1.0
100
AcDbText
  0
TEXT
  5
1FC
100
AcDbEntity
  8
1
  6
CONTINUOUS
 62
     7
100
AcDbText
 10
903.6612
 20
-60.4908
 30
0.0
 40
3.0
  1
SEE
  7
MONOTXT
 72
     4
 11
907.4998
 21
-58.9908
 31
0.0
210
0.0
220
0.0
230
1.0
100
AcDbText
  0
TEXT
  5
1FD
100
AcDbEntity
  8
1
  6
CONTINUOUS
 62
     7
100
AcDbText
 10
890.6219
 20
-65.8908
 30
0.0
 40
3.0
  1
ACCOMPANYING
  7
MONOTXT
 72
     4
 11
907.4998
 21
-64.3908
 31
0.0
210
0.0
220
0.0
230
1.0
100
AcDbText
  0
TEXT
  5
1FE
100
AcDbEntity
  8
1
  6
CONTINUOUS
 62
     7
100
AcDbText
 10
900.5431
 20
-71.2908
 30
0.0
 40
3.0
  1
CHART
  7
MONOTXT
 72
     4
 11
907.4997
 21
-69.7908
 31
0.0
210
0.0
220
0.0
230
1.0
100
AcDbText
  0
TEXT
  5
1FF
100
AcDbEntity
  8
1
  6
CONTINUOUS
 62
     7
100
AcDbText
 10
898.2459
 20
-58.2575
 30
0.0
 40
6.0
  1
*
  7
MONOTXT
210
0.0
220
0.0
230
1.0
100
AcDbText
  0
TEXT
  5
200
100
AcDbEntity
  8
1
  6
CONTINUOUS
 62
     7
100
AcDbText
 10
804.7125
 20
111.0038
 30
0.0
 40
3.0
  1
W1-3
  7
MONOTXT
 72
     4
 11
809.7085
 21
112.5038
 31
0.0
210
0.0
220
0.0
230
1.0
100
AcDbText
  0
TEXT
  5
201
100
AcDbEntity
  8
1
  6
CONTINUOUS
 62
     7
100
AcDbText
 10
787.7775
 20
106.4985
 30
0.0
 40
3.0
  1
W13-1
  7
MONOTXT
 72
     4
 11
793.6121
 21
107.9985
 31
0.0
210
0.0
220
0.0
230
1.0
100
AcDbText
  0
TEXT
  5
202
100
AcDbEntity
  8
1
  6
CONTINUOUS
 62
     7
100
AcDbText
 10
790.8703
 20
97.9173
 30
0.0
 40
3.0
  1
(30 OR LESS)
  7
MONOTXT
 72
     4
 11
807.0159
 21
99.4173
 31
0.0
210
0.0
220
0.0
230
1.0
100
AcDbText
  0
TEXT
  5
203
100
AcDbEntity
  8
1
  6
CONTINUOUS
 62
     7
100
AcDbText
 10
885.9778
 20
154.9707
 30
0.0
 40
3.0
  1
W1-6
  7
MONOTXT
 72
     4
 11
890.903
 21
156.4707
 31
0.0
210
0.0
220
0.0
230
1.0
100
AcDbText
  0
TEXT
  5
204
100
AcDbEntity
  8
1
  6
CONTINUOUS
 62
     7
100
AcDbText
 10
859.9382
 20
12.8282
 30
0.0
 40
3.0
  1
W1-6
  7
MONOTXT
 72
     4
 11
864.8634
 21
14.3282
 31
0.0
210
0.0
220
0.0
230
1.0
100
AcDbText
  0
TEXT
  5
205
100
AcDbEntity
  8
1
  6
CONTINUOUS
 62
     7
100
AcDbText
 10
962.6245
 20
68.433
 30
0.0
 40
3.0
  1
W13-1
  7
MONOTXT
 72
     4
 11
968.4591
 21
69.933
 31
0.0
210
0.0
220
0.0
230
1.0
100
AcDbText
  0
TEXT
  5
206
100
AcDbEntity
  8
1
  6
CONTINUOUS
 62
     7
100
AcDbText
 10
947.7251
 20
68.2496
 30
0.0
 40
3.0
  1
W1-3
  7
MONOTXT
 72
     4
 11
952.7211
 21
69.7496
 31
0.0
210
0.0
220
0.0
230
1.0
100
AcDbText
  0
TEXT
  5
207
100
AcDbEntity
  8
1
  6
CONTINUOUS
 62
     7
100
AcDbText
 10
942.7005
 20
62.5791
 30
0.0
 40
3.0
  1
(30 OR LESS)
  7
MONOTXT
 72
     4
 11
958.8461
 21
64.0791
 31
0.0
210
0.0
220
0.0
230
1.0
100
AcDbText
  0
LINE
  5
208
100
AcDbEntity
  8
1
  6
CONTINUOUS
 62
     7
100
AcDbLine
 10
874.484
 20
31.5453
 30
0.0
 11
871.5771
 21
14.9845
 31
0.0
  0
LINE
  5
209
100
AcDbEntity
  8
1
  6
CONTINUOUS
 62
     7
100
AcDbLine
 10
871.5771
 20
14.9845
 30
0.0
 11
887.9832
 21
18.6531
 31
0.0
  0
INSERT
  5
20A
100
AcDbEntity
  8
1
  6
CONTINUOUS
 62
     1
100
AcDbBlockReference
  2
LDR
 10
874.484
 20
31.5453
 30
0.0
 41
239.999998
 42
239.999998
 50
80.044351
210
0.0
220
0.0
230
1.0
  0
INSERT
  5
20B
100
AcDbEntity
  8
1
  6
CONTINUOUS
 62
     1
100
AcDbBlockReference
  2
LDR
 10
874.484
 20
31.5453
 30
0.0
 41
239.999998
 42
239.999998
 50
80.044351
210
0.0
220
0.0
230
1.0
  0
INSERT
  5
20C
100
AcDbEntity
  8
1
  6
CONTINUOUS
 62
     1
100
AcDbBlockReference
  2
LDR
 10
887.9832
 20
18.6531
 30
0.0
 41
239.999999
 42
239.999999
 50
12.604664
210
0.0
220
0.0
230
1.0
  0
LINE
  5
20D
100
AcDbEntity
  8
1
  6
CONTINUOUS
 62
     7
100
AcDbLine
 10
870.1706
 20
154.8391
 30
0.0
 11
885.2381
 21
156.5937
 31
0.0
  0
LINE
  5
20E
100
AcDbEntity
  8
1
  6
CONTINUOUS
 62
     7
100
AcDbLine
 10
885.2381
 20
156.5937
 30
0.0
 11
883.0628
 21
141.34
 31
0.0
  0
INSERT
  5
20F
100
AcDbEntity
  8
1
  6
CONTINUOUS
 62
     1
100
AcDbBlockReference
  2
LDR
 10
870.1706
 20
154.8391
 30
0.0
 41
240.0
 42
240.0
 50
186.642139
210
0.0
220
0.0
230
1.0
  0
INSERT
  5
210
100
AcDbEntity
  8
1
  6
CONTINUOUS
 62
     1
100
AcDbBlockReference
  2
LDR
 10
870.1706
 20
154.8391
 30
0.0
 41
240.0
 42
240.0
 50
186.642139
210
0.0
220
0.0
230
1.0
  0
INSERT
  5
211
100
AcDbEntity
  8
1
  6
CONTINUOUS
 62
     1
100
AcDbBlockReference
  2
LDR
 10
883.0628
 20
141.34
 30
0.0
 41
240.000001
 42
240.000001
 50
261.883886
210
0.0
220
0.0
230
1.0
  0
TEXT
  5
212
100
AcDbEntity
  8
1
  6
CONTINUOUS
 62
     7
100
AcDbText
 10
997.5338
 20
94.8874
 30
0.0
 40
3.0
  1
W1-5
  7
MONOTXT
 72
     4
 11
1002.5298
 21
96.3874
 31
0.0
210
0.0
220
0.0
230
1.0
100
AcDbText
  0
TEXT
  5
213
100
AcDbEntity
  8
1
  6
CONTINUOUS
 62
     7
100
AcDbText
 10
979.5759
 20
94.9867
 30
0.0
 40
3.0
  1
W13-1
  7
MONOTXT
 72
     4
 11
985.4105
 21
96.4867
 31
0.0
210
0.0
220
0.0
230
1.0
100
AcDbText
  0
TEXT
  5
214
100
AcDbEntity
  8
1
  6
CONTINUOUS
 62
     7
100
AcDbText
 10
1211.4125
 20
70.4413
 30
0.0
 40
3.0
  1
SEE
  7
MONOTXT
 72
     4
 11
1215.2511
 21
71.9413
 31
0.0
210
0.0
220
0.0
230
1.0
100
AcDbText
  0
TEXT
  5
215
100
AcDbEntity
  8
1
  6
CONTINUOUS
 62
     7
100
AcDbText
 10
1198.3732
 20
65.0413
 30
0.0
 40
3.0
  1
ACCOMPANYING
  7
MONOTXT
 72
     4
 11
1215.2511
 21
66.5413
 31
0.0
210
0.0
220
0.0
230
1.0
100
AcDbText
  0
TEXT
  5
216
100
AcDbEntity
  8
1
  6
CONTINUOUS
 62
     7
100
AcDbText
 10
1208.2944
 20
59.6413
 30
0.0
 40
3.0
  1
CHART
  7
MONOTXT
 72
     4
 11
1215.251
 21
61.1413
 31
0.0
210
0.0
220
0.0
230
1.0
100
AcDbText
  0
TEXT
  5
217
100
AcDbEntity
  8
1
  6
CONTINUOUS
 62
     7
100
AcDbText
 10
1205.9972
 20
72.6746
 30
0.0
 40
6.0
  1
*
  7
MONOTXT
210
0.0
220
0.0
230
1.0
100
AcDbText
  0
TEXT
  5
218
100
AcDbEntity
  8
1
  6
CONTINUOUS
 62
     7
100
AcDbText
 10
1324.6397
 20
89.6225
 30
0.0
 40
3.0
  1
W1-5
  7
MONOTXT
 72
     4
 11
1329.6357
 21
91.1225
 31
0.0
210
0.0
220
0.0
230
1.0
100
AcDbText
  0
TEXT
  5
219
100
AcDbEntity
  8
1
  6
CONTINUOUS
 62
     7
100
AcDbText
 10
1340.8968
 20
89.5232
 30
0.0
 40
3.0
  1
W13-1
  7
MONOTXT
 72
     4
 11
1346.7314
 21
91.0232
 31
0.0
210
0.0
220
0.0
230
1.0
100
AcDbText
  0
TEXT
  5
21A
100
AcDbEntity
  8
1
  6
CONTINUOUS
 62
     7
100
AcDbText
 10
688.9937
 20
-111.5626
 30
0.0
 40
3.0
  1
SEE
  7
MONOTXT
 72
     4
 11
692.8323
 21
-110.0626
 31
0.0
210
0.0
220
0.0
230
1.0
100
AcDbText
  0
TEXT
  5
21B
100
AcDbEntity
  8
1
  6
CONTINUOUS
 62
     7
100
AcDbText
 10
675.9544
 20
-116.9626
 30
0.0
 40
3.0
  1
ACCOMPANYING
  7
MONOTXT
 72
     4
 11
692.8323
 21
-115.4626
 31
0.0
210
0.0
220
0.0
230
1.0
100
AcDbText
  0
TEXT
  5
21C
100
AcDbEntity
  8
1
  6
CONTINUOUS
 62
     7
100
AcDbText
 10
685.8756
 20
-122.3626
 30
0.0
 40
3.0
  1
CHART
  7
MONOTXT
 72
     4
 11
692.8322
 21
-120.8626
 31
0.0
210
0.0
220
0.0
230
1.0
100
AcDbText
  0
TEXT
  5
21D
100
AcDbEntity
  8
1
  6
CONTINUOUS
 62
     7
100
AcDbText
 10
683.5784
 20
-109.3293
 30
0.0
 40
6.0
  1
*
  7
MONOTXT
210
0.0
220
0.0
230
1.0
100
AcDbText
  0
TEXT
  5
21E
100
AcDbEntity
  8
1
  6
CONTINUOUS
 62
     7
100
AcDbText
 10
750.23
 20
-47.0839
 30
0.0
 40
3.0
  1
W1-2
  7
MONOTXT
 72
     4
 11
755.226
 21
-45.5839
 31
0.0
210
0.0
220
0.0
230
1.0
100
AcDbText
  0
TEXT
  5
21F
100
AcDbEntity
  8
1
  6
CONTINUOUS
 62
     7
100
AcDbText
 10
766.4871
 20
-47.1832
 30
0.0
 40
3.0
  1
W13-1
  7
MONOTXT
 72
     4
 11
772.3217
 21
-45.6832
 31
0.0
210
0.0
220
0.0
230
1.0
100
AcDbText
  0
TEXT
  5
220
100
AcDbEntity
  8
1
  6
CONTINUOUS
 62
     7
100
AcDbText
 10
604.5468
 20
-140.9718
 30
0.0
 40
3.0
  1
W13-1
  7
MONOTXT
 72
     4
 11
610.3814
 21
-139.4718
 31
0.0
210
0.0
220
0.0
230
1.0
100
AcDbText
  0
TEXT
  5
221
100
AcDbEntity
  8
1
  6
CONTINUOUS
 62
     7
100
AcDbText
 10
622.5047
 20
-141.0711
 30
0.0
 40
3.0
  1
W1-2
  7
MONOTXT
 72
     4
 11
627.5007
 21
-139.5711
 31
0.0
210
0.0
220
0.0
230
1.0
100
AcDbText
  0
TEXT
  5
222
100
AcDbEntity
  8
1
  6
CONTINUOUS
 62
     7
100
AcDbText
 10
958.7387
 20
-90.2709
 30
0.0
 40
3.0
  1
W13-1
  7
MONOTXT
 72
     4
 11
964.5733
 21
-88.7709
 31
0.0
210
0.0
220
0.0
230
1.0
100
AcDbText
  0
TEXT
  5
223
100
AcDbEntity
  8
1
  6
CONTINUOUS
 62
     7
100
AcDbText
 10
942.4107
 20
-90.1716
 30
0.0
 40
3.0
  1
W1-4
  7
MONOTXT
 72
     4
 11
947.4776
 21
-88.6716
 31
0.0
210
0.0
220
0.0
230
1.0
100
AcDbText
  0
TEXT
  5
224
100
AcDbEntity
  8
1
  6
CONTINUOUS
 62
     7
100
AcDbText
 10
804.8005
 20
-87.3142
 30
0.0
 40
3.0
  1
W1-4
  7
MONOTXT
 72
     4
 11
809.8674
 21
-85.8142
 31
0.0
210
0.0
220
0.0
230
1.0
100
AcDbText
  0
TEXT
  5
225
100
AcDbEntity
  8
1
  6
CONTINUOUS
 62
     7
100
AcDbText
 10
786.9135
 20
-87.2149
 30
0.0
 40
3.0
  1
W13-1
  7
MONOTXT
 72
     4
 11
792.7481
 21
-85.7149
 31
0.0
210
0.0
220
0.0
230
1.0
100
AcDbText
  0
TEXT
  5
226
100
AcDbEntity
  8
1
  6
CONTINUOUS
 62
     7
100
AcDbText
 10
1064.1915
 20
-18.2816
 30
0.0
 40
3.0
  1
W1-6
  7
MONOTXT
 72
     4
 11
1069.1167
 21
-16.7816
 31
0.0
210
0.0
220
0.0
230
1.0
100
AcDbText
  0
TEXT
  5
227
100
AcDbEntity
  8
1
  6
CONTINUOUS
 62
     7
100
AcDbText
 10
1101.8609
 20
-144.5963
 30
0.0
 40
3.0
  1
W1-6
  7
MONOTXT
 72
     4
 11
1106.7861
 21
-143.0963
 31
0.0
210
0.0
220
0.0
230
1.0
100
AcDbText
  0
TEXT
  5
228
100
AcDbEntity
  8
1
  6
CONTINUOUS
 62
     7
100
AcDbText
 10
1223.5212
 20
-33.4571
 30
0.0
 40
3.0
  1
W1-6
  7
MONOTXT
 72
     4
 11
1228.4464
 21
-31.9571
 31
0.0
210
0.0
220
0.0
230
1.0
100
AcDbText
  0
TEXT
  5
229
100
AcDbEntity
  8
1
  6
CONTINUOUS
 62
     7
100
AcDbText
 10
1258.5727
 20
-159.3568
 30
0.0
 40
3.0
  1
W1-6
  7
MONOTXT
 72
     4
 11
1263.4979
 21
-157.8568
 31
0.0
210
0.0
220
0.0
230
1.0
100
AcDbText
  0
TEXT
  5
22A
100
AcDbEntity
  8
1
  6
CONTINUOUS
 62
     7
100
AcDbText
 10
1003.4762
 20
-67.4816
 30
0.0
 40
3.0
  1
W1-5
  7
MONOTXT
 72
     4
 11
1008.4722
 21
-65.9816
 31
0.0
210
0.0
220
0.0
230
1.0
100
AcDbText
  0
TEXT
  5
22B
100
AcDbEntity
  8
1
  6
CONTINUOUS
 62
     7
100
AcDbText
 10
984.1057
 20
-75.329
 30
0.0
 40
3.0
  1
(30 OR LESS)
  7
MONOTXT
 72
     4
 11
1000.2513
 21
-73.829
 31
0.0
210
0.0
220
0.0
230
1.0
100
AcDbText
  0
TEXT
  5
22C
100
AcDbEntity
  8
1
  6
CONTINUOUS
 62
     7
100
AcDbText
 10
985.5183
 20
-67.3823
 30
0.0
 40
3.0
  1
W13-1
  7
MONOTXT
 72
     4
 11
991.3529
 21
-65.8823
 31
0.0
210
0.0
220
0.0
230
1.0
100
AcDbText
  0
TEXT
  5
22D
100
AcDbEntity
  8
1
  6
CONTINUOUS
 62
     7
100
AcDbText
 10
1322.8732
 20
-108.5752
 30
0.0
 40
3.0
  1
(30 OR LESS)
  7
MONOTXT
 72
     4
 11
1339.0188
 21
-107.0752
 31
0.0
210
0.0
220
0.0
230
1.0
100
AcDbText
  0
TEXT
  5
22E
100
AcDbEntity
  8
1
  6
CONTINUOUS
 62
     7
100
AcDbText
 10
1341.3933
 20
-100.7278
 30
0.0
 40
3.0
  1
W13-1
  7
MONOTXT
 72
     4
 11
1347.2279
 21
-99.2278
 31
0.0
210
0.0
220
0.0
230
1.0
100
AcDbText
  0
TEXT
  5
22F
100
AcDbEntity
  8
1
  6
CONTINUOUS
 62
     7
100
AcDbText
 10
1325.1362
 20
-100.6285
 30
0.0
 40
3.0
  1
W1-5
  7
MONOTXT
 72
     4
 11
1330.1322
 21
-99.1285
 31
0.0
210
0.0
220
0.0
230
1.0
100
AcDbText
  0
TEXT
  5
230
100
AcDbEntity
  8
1
  6
CONTINUOUS
 62
     7
100
AcDbText
 10
1209.8795
 20
-92.6537
 30
0.0
 40
6.0
  1
*
  7
MONOTXT
210
0.0
220
0.0
230
1.0
100
AcDbText
  0
TEXT
  5
231
100
AcDbEntity
  8
1
  6
CONTINUOUS
 62
     7
100
AcDbText
 10
1215.2948
 20
-94.887
 30
0.0
 40
3.0
  1
SEE
  7
MONOTXT
 72
     4
 11
1219.1334
 21
-93.387
 31
0.0
210
0.0
220
0.0
230
1.0
100
AcDbText
  0
TEXT
  5
232
100
AcDbEntity
  8
1
  6
CONTINUOUS
 62
     7
100
AcDbText
 10
1202.2555
 20
-100.287
 30
0.0
 40
3.0
  1
ACCOMPANYING
  7
MONOTXT
 72
     4
 11
1219.1334
 21
-98.787
 31
0.0
210
0.0
220
0.0
230
1.0
100
AcDbText
  0
TEXT
  5
233
100
AcDbEntity
  8
1
  6
CONTINUOUS
 62
     7
100
AcDbText
 10
1212.1767
 20
-105.687
 30
0.0
 40
3.0
  1
CHART
  7
MONOTXT
 72
     4
 11
1219.1333
 21
-104.187
 31
0.0
210
0.0
220
0.0
230
1.0
100
AcDbText
  0
LINE
  5
234
100
AcDbEntity
  8
1
  6
CONTINUOUS
 62
     7
100
AcDbLine
 10
1053.1122
 20
-19.3575
 30
0.0
 11
1063.4283
 21
-17.2318
 31
0.0
  0
LINE
  5
235
100
AcDbEntity
  8
1
  6
CONTINUOUS
 62
     7
100
AcDbLine
 10
1063.4283
 20
-17.2318
 30
0.0
 11
1063.831
 21
-29.7562
 31
0.0
  0
INSERT
  5
236
100
AcDbEntity
  8
1
  6
CONTINUOUS
 62
     1
100
AcDbBlockReference
  2
LDR
 10
1053.1122
 20
-19.3575
 30
0.0
 41
239.999998
 42
239.999998
 50
191.643208
210
0.0
220
0.0
230
1.0
  0
INSERT
  5
237
100
AcDbEntity
  8
1
  6
CONTINUOUS
 62
     1
100
AcDbBlockReference
  2
LDR
 10
1053.1122
 20
-19.3575
 30
0.0
 41
239.999998
 42
239.999998
 50
191.643208
210
0.0
220
0.0
230
1.0
  0
INSERT
  5
238
100
AcDbEntity
  8
1
  6
CONTINUOUS
 62
     1
100
AcDbBlockReference
  2
LDR
 10
1063.831
 20
-29.7562
 30
0.0
 41
240.0
 42
240.0
 50
271.84161
210
0.0
220
0.0
230
1.0
  0
LINE
  5
239
100
AcDbEntity
  8
1
  6
CONTINUOUS
 62
     7
100
AcDbLine
 10
1073.1331
 20
-121.3409
 30
0.0
 11
1100.4837
 21
-143.0919
 31
0.0
  0
LINE
  5
23A
100
AcDbEntity
  8
1
  6
CONTINUOUS
 62
     7
100
AcDbLine
 10
1144.3695
 20
-132.5354
 30
0.0
 11
1112.8302
 21
-143.2095
 31
0.0
  0
INSERT
  5
23B
100
AcDbEntity
  8
1
  6
CONTINUOUS
 62
     1
100
AcDbBlockReference
  2
LDR
 10
1073.1331
 20
-121.3409
 30
0.0
 41
239.999998
 42
239.999998
 50
141.505966
210
0.0
220
0.0
230
1.0
  0
INSERT
  5
23C
100
AcDbEntity
  8
1
  6
CONTINUOUS
 62
     1
100
AcDbBlockReference
  2
LDR
 10
1073.1331
 20
-121.3409
 30
0.0
 41
239.999998
 42
239.999998
 50
141.505966
210
0.0
220
0.0
230
1.0
  0
INSERT
  5
23D
100
AcDbEntity
  8
1
  6
CONTINUOUS
 62
     1
100
AcDbBlockReference
  2
LDR
 10
1144.3695
 20
-132.5354
 30
0.0
 41
239.999999
 42
239.999999
 50
18.697776
210
0.0
220
0.0
230
1.0
  0
LINE
  5
23E
100
AcDbEntity
  8
1
  6
CONTINUOUS
 62
     7
100
AcDbLine
 10
1193.0576
 20
-42.3408
 30
0.0
 11
1222.594
 21
-32.195
 31
0.0
  0
LINE
  5
23F
100
AcDbEntity
  8
1
  6
CONTINUOUS
 62
     7
100
AcDbLine
 10
1264.294
 20
-53.5353
 30
0.0
 11
1234.7422
 21
-32.0759
 31
0.0
  0
INSERT
  5
240
100
AcDbEntity
  8
1
  6
CONTINUOUS
 62
     1
100
AcDbBlockReference
  2
LDR
 10
1193.0576
 20
-42.3408
 30
0.0
 41
240.0
 42
240.0
 50
198.957677
210
0.0
220
0.0
230
1.0
  0
INSERT
  5
241
100
AcDbEntity
  8
1
  6
CONTINUOUS
 62
     1
100
AcDbBlockReference
  2
LDR
 10
1193.0576
 20
-42.3408
 30
0.0
 41
240.0
 42
240.0
 50
198.957677
210
0.0
220
0.0
230
1.0
  0
INSERT
  5
242
100
AcDbEntity
  8
1
  6
CONTINUOUS
 62
     1
100
AcDbBlockReference
  2
LDR
 10
1264.294
 20
-53.5353
 30
0.0
 41
240.0
 42
240.0
 50
324.014266
210
0.0
220
0.0
230
1.0
  0
LINE
  5
243
100
AcDbEntity
  8
1
  6
CONTINUOUS
 62
     7
100
AcDbLine
 10
1273.596
 20
-145.12
 30
0.0
 11
1269.4321
 21
-157.5192
 31
0.0
  0
LINE
  5
244
100
AcDbEntity
  8
1
  6
CONTINUOUS
 62
     7
100
AcDbLine
 10
1269.4321
 20
-157.5192
 30
0.0
 11
1284.3149
 21
-155.5186
 31
0.0
  0
INSERT
  5
245
100
AcDbEntity
  8
1
  6
CONTINUOUS
 62
     1
100
AcDbBlockReference
  2
LDR
 10
1273.596
 20
-145.12
 30
0.0
 41
240.000001
 42
240.000001
 50
71.436917
210
0.0
220
0.0
230
1.0
  0
INSERT
  5
246
100
AcDbEntity
  8
1
  6
CONTINUOUS
 62
     1
100
AcDbBlockReference
  2
LDR
 10
1273.596
 20
-145.12
 30
0.0
 41
240.000001
 42
240.000001
 50
71.436917
210
0.0
220
0.0
230
1.0
  0
INSERT
  5
247
100
AcDbEntity
  8
1
  6
CONTINUOUS
 62
     1
100
AcDbBlockReference
  2
LDR
 10
1284.3149
 20
-155.5186
 30
0.0
 41
240.0
 42
240.0
 50
7.656012
210
0.0
220
0.0
230
1.0
  0
TEXT
  5
248
100
AcDbEntity
  8
1
  6
CONTINUOUS
 62
     7
100
AcDbText
 10
595.067
 20
-147.2836
 30
0.0
 40
3.0
  1
(35 OR MORE)
  7
MONOTXT
 72
     4
 11
611.6378
 21
-145.7836
 31
0.0
210
0.0
220
0.0
230
1.0
100
AcDbText
  0
TEXT
  5
249
100
AcDbEntity
  8
1
  6
CONTINUOUS
 62
     7
100
AcDbText
 10
746.5752
 20
-53.8346
 30
0.0
 40
3.0
  1
(35 OR MORE)
  7
MONOTXT
 72
     4
 11
763.146
 21
-52.3346
 31
0.0
210
0.0
220
0.0
230
1.0
100
AcDbText
  0
TEXT
  5
24A
100
AcDbEntity
  8
1
  6
CONTINUOUS
 62
     7
100
AcDbText
 10
785.9809
 20
-94.2726
 30
0.0
 40
3.0
  1
(35 OR MORE)
  7
MONOTXT
 72
     4
 11
802.5517
 21
-92.7726
 31
0.0
210
0.0
220
0.0
230
1.0
100
AcDbText
  0
TEXT
  5
24B
100
AcDbEntity
  8
1
  6
CONTINUOUS
 62
     7
100
AcDbText
 10
942.0735
 20
-96.8055
 30
0.0
 40
3.0
  1
(35 OR MORE)
  7
MONOTXT
 72
     4
 11
958.6443
 21
-95.3055
 31
0.0
210
0.0
220
0.0
230
1.0
100
AcDbText
  0
TEXT
  5
24C
100
AcDbEntity
  8
1
  6
CONTINUOUS
 62
     7
100
AcDbText
 10
978.2199
 20
89.0151
 30
0.0
 40
3.0
  1
(35 OR MORE)
  7
MONOTXT
 72
     4
 11
994.7907
 21
90.5151
 31
0.0
210
0.0
220
0.0
230
1.0
100
AcDbText
  0
TEXT
  5
24D
100
AcDbEntity
  8
1
  6
CONTINUOUS
 62
     7
100
AcDbText
 10
1324.6491
 20
83.2263
 30
0.0
 40
3.0
  1
(35 OR MORE)
  7
MONOTXT
 72
     4
 11
1341.2199
 21
84.7263
 31
0.0
210
0.0
220
0.0
230
1.0
100
AcDbText
  0
TEXT
  5
24F
100
AcDbEntity
  8
1
  6
CONTINUOUS
 62
     7
100
AcDbText
 10
671.2842
 20
12.857
 30
0.0
 40
4.8
  1
C-2A
  7
TXT
 72
     4
 11
678.9722
 21
15.257
 31
0.0
210
0.0
220
0.0
230
1.0
100
AcDbText
  0
TEXT
  5
250
100
AcDbEntity
  8
1
  6
CONTINUOUS
 62
     7
100
AcDbText
 10
807.5138
 20
43.0255
 30
0.0
 40
4.8
  1
C-2B
  7
TXT
 72
     4
 11
814.9604
 21
45.4255
 31
0.0
210
0.0
220
0.0
230
1.0
100
AcDbText
  0
TEXT
  5
251
100
AcDbEntity
  8
1
  6
CONTINUOUS
 62
     7
100
AcDbText
 10
686.6377
 20
-150.0525
 30
0.0
 40
4.8
  1
C-3A
  7
TXT
 72
     4
 11
694.3257
 21
-147.6525
 31
0.0
210
0.0
220
0.0
230
1.0
100
AcDbText
  0
TEXT
  5
252
100
AcDbEntity
  8
1
  6
CONTINUOUS
 62
     7
100
AcDbText
 10
838.7691
 20
-142.3732
 30
0.0
 40
4.8
  1
C-3B
  7
TXT
 72
     4
 11
846.2157
 21
-139.9732
 31
0.0
210
0.0
220
0.0
230
1.0
100
AcDbText
  0
TEXT
  5
253
100
AcDbEntity
  8
1
  6
CONTINUOUS
 62
     7
100
AcDbText
 10
1140.9661
 20
20.6986
 30
0.0
 40
4.8
  1
C-4
  7
TXT
 72
     4
 11
1146.4003
 21
23.0986
 31
0.0
210
0.0
220
0.0
230
1.0
100
AcDbText
  0
TEXT
  5
254
100
AcDbEntity
  8
1
  6
CONTINUOUS
 62
     7
100
AcDbText
 10
1151.4646
 20
-155.6058
 30
0.0
 40
4.8
  1
C-5
  7
TXT
 72
     4
 11
1156.8478
 21
-153.2058
 31
0.0
210
0.0
220
0.0
230
1.0
100
AcDbText
  0
LINE
  5
255
100
AcDbEntity
  8
1
  6
CONTINUOUS
 62
   132
100
AcDbLine
 10
978.7227
 20
-181.0848
 30
0.0
 11
1140.7227
 21
-181.0848
 31
0.0
  0
LINE
  5
256
100
AcDbEntity
  8
1
  6
CONTINUOUS
 62
   132
100
AcDbLine
 10
1140.7227
 20
-181.0848
 30
0.0
 11
1140.7227
 21
-319.0848
 31
0.0
  0
LINE
  5
257
100
AcDbEntity
  8
1
  6
CONTINUOUS
 62
   132
100
AcDbLine
 10
1140.7227
 20
-319.0848
 30
0.0
 11
978.7227
 21
-319.0848
 31
0.0
  0
LINE
  5
258
100
AcDbEntity
  8
1
  6
CONTINUOUS
 62
   132
100
AcDbLine
 10
978.7227
 20
-211.0848
 30
0.0
 11
1140.7227
 21
-211.0848
 31
0.0
  0
LINE
  5
259
100
AcDbEntity
  8
1
  6
CONTINUOUS
 62
   132
100
AcDbLine
 10
1086.7227
 20
-181.0848
 30
0.0
 11
1086.7227
 21
-319.0848
 31
0.0
  0
LINE
  5
25A
100
AcDbEntity
  8
1
  6
CONTINUOUS
 62
   132
100
AcDbLine
 10
1032.7227
 20
-181.0848
 30
0.0
 11
1032.7227
 21
-319.0848
 31
0.0
  0
LINE
  5
25B
100
AcDbEntity
  8
1
  6
CONTINUOUS
 62
   132
100
AcDbLine
 10
978.7227
 20
-181.0848
 30
0.0
 11
978.7227
 21
-319.0848
 31
0.0
  0
LINE
  5
25C
100
AcDbEntity
  8
1
  6
CONTINUOUS
 62
   132
100
AcDbLine
 10
972.7227
 20
-181.0848
 30
0.0
 11
972.7227
 21
-319.0848
 31
0.0
  0
LINE
  5
25D
100
AcDbEntity
  8
1
  6
CONTINUOUS
 62
   132
100
AcDbLine
 10
810.7227
 20
-181.0848
 30
0.0
 11
972.7227
 21
-181.0848
 31
0.0
  0
LINE
  5
25E
100
AcDbEntity
  8
1
  6
CONTINUOUS
 62
   132
100
AcDbLine
 10
972.7227
 20
-319.0848
 30
0.0
 11
810.7227
 21
-319.0848
 31
0.0
  0
LINE
  5
25F
100
AcDbEntity
  8
1
  6
CONTINUOUS
 62
   132
100
AcDbLine
 10
810.7227
 20
-211.0848
 30
0.0
 11
972.7227
 21
-211.0848
 31
0.0
  0
LINE
  5
260
100
AcDbEntity
  8
1
  6
CONTINUOUS
 62
   132
100
AcDbLine
 10
918.7227
 20
-181.0848
 30
0.0
 11
918.7227
 21
-319.0848
 31
0.0
  0
LINE
  5
261
100
AcDbEntity
  8
1
  6
CONTINUOUS
 62
   132
100
AcDbLine
 10
864.7227
 20
-181.0848
 30
0.0
 11
864.7227
 21
-319.0848
 31
0.0
  0
LINE
  5
262
100
AcDbEntity
  8
1
  6
CONTINUOUS
 62
   132
100
AcDbLine
 10
810.7227
 20
-181.0848
 30
0.0
 11
810.7227
 21
-319.0848
 31
0.0
  0
TEXT
  5
263
100
AcDbEntity
  8
1
  6
CONTINUOUS
 62
     7
100
AcDbText
 10
880.0937
 20
-192.627
 30
0.0
 40
3.0
  1
ADVISORY
  7
MONOTXT
 72
     4
 11
890.8771
 21
-191.127
 31
0.0
210
0.0
220
0.0
230
1.0
100
AcDbText
  0
TEXT
  5
264
100
AcDbEntity
  8
1
  6
CONTINUOUS
 62
     7
100
AcDbText
 10
884.0623
 20
-198.027
 30
0.0
 40
3.0
  1
SPEED
  7
MONOTXT
 72
     4
 11
890.8772
 21
-196.527
 31
0.0
210
0.0
220
0.0
230
1.0
100
AcDbText
  0
TEXT
  5
265
100
AcDbEntity
  8
1
  6
CONTINUOUS
 62
     7
100
AcDbText
 10
884.9245
 20
-203.427
 30
0.0
 40
3.0
  1
(MPH)
  7
MONOTXT
 72
     4
 11
890.8654
 21
-201.927
 31
0.0
210
0.0
220
0.0
230
1.0
100
AcDbText
  0
TEXT
  5
266
100
AcDbEntity
  8
1
  6
CONTINUOUS
 62
     7
100
AcDbText
 10
1048.7206
 20
-192.627
 30
0.0
 40
3.0
  1
ADVISORY
  7
MONOTXT
 72
     4
 11
1059.504
 21
-191.127
 31
0.0
210
0.0
220
0.0
230
1.0
100
AcDbText
  0
TEXT
  5
267
100
AcDbEntity
  8
1
  6
CONTINUOUS
 62
     7
100
AcDbText
 10
1052.6892
 20
-198.027
 30
0.0
 40
3.0
  1
SPEED
  7
MONOTXT
 72
     4
 11
1059.5041
 21
-196.527
 31
0.0
210
0.0
220
0.0
230
1.0
100
AcDbText
  0
TEXT
  5
268
100
AcDbEntity
  8
1
  6
CONTINUOUS
 62
     7
100
AcDbText
 10
1053.5514
 20
-203.427
 30
0.0
 40
3.0
  1
(MPH)
  7
MONOTXT
 72
     4
 11
1059.4923
 21
-201.927
 31
0.0
210
0.0
220
0.0
230
1.0
100
AcDbText
  0
TEXT
  5
269
100
AcDbEntity
  8
1
  6
CONTINUOUS
 62
     7
100
AcDbText
 10
1058.1583
 20
-217.2485
 30
0.0
 40
2.7
  1
10
  7
MONOTXT
 72
     4
 11
1059.8165
 21
-215.8985
 31
0.0
210
0.0
220
0.0
230
1.0
100
AcDbText
  0
TEXT
  5
26A
100
AcDbEntity
  8
1
  6
CONTINUOUS
 62
     7
100
AcDbText
 10
1058.1583
 20
-221.1485
 30
0.0
 40
2.7
  1
15
  7
MONOTXT
 72
     4
 11
1059.8271
 21
-219.7985
 31
0.0
210
0.0
220
0.0
230
1.0
100
AcDbText
  0
TEXT
  5
26B
100
AcDbEntity
  8
1
  6
CONTINUOUS
 62
     7
100
AcDbText
 10
1057.5843
 20
-225.0485
 30
0.0
 40
2.7
  1
20
  7
MONOTXT
 72
     4
 11
1059.8165
 21
-223.6985
 31
0.0
210
0.0
220
0.0
230
1.0
100
AcDbText
  0
TEXT
  5
26C
100
AcDbEntity
  8
1
  6
CONTINUOUS
 62
     7
100
AcDbText
 10
1057.5843
 20
-228.9485
 30
0.0
 40
2.7
  1
25
  7
MONOTXT
 72
     4
 11
1059.8272
 21
-227.5985
 31
0.0
210
0.0
220
0.0
230
1.0
100
AcDbText
  0
TEXT
  5
26D
100
AcDbEntity
  8
1
  6
CONTINUOUS
 62
     7
100
AcDbText
 10
1057.5843
 20
-232.8485
 30
0.0
 40
2.7
  1
30
  7
MONOTXT
 72
     4
 11
1059.8165
 21
-231.4985
 31
0.0
210
0.0
220
0.0
230
1.0
100
AcDbText
  0
TEXT
  5
26E
100
AcDbEntity
  8
1
  6
CONTINUOUS
 62
     7
100
AcDbText
 10
1057.5843
 20
-236.7485
 30
0.0
 40
2.7
  1
35
  7
MONOTXT
 72
     4
 11
1059.8272
 21
-235.3985
 31
0.0
210
0.0
220
0.0
230
1.0
100
AcDbText
  0
TEXT
  5
26F
100
AcDbEntity
  8
1
  6
CONTINUOUS
 62
     7
100
AcDbText
 10
1057.5205
 20
-240.6485
 30
0.0
 40
2.7
  1
40
  7
MONOTXT
 72
     4
 11
1059.8165
 21
-239.2985
 31
0.0
210
0.0
220
0.0
230
1.0
100
AcDbText
  0
TEXT
  5
270
100
AcDbEntity
  8
1
  6
CONTINUOUS
 62
     7
100
AcDbText
 10
1058.9131
 20
-244.5485
 30
0.0
 40
2.7
  1
 
  7
MONOTXT
 72
     4
 11
1059.8131
 21
-243.1985
 31
0.0
210
0.0
220
0.0
230
1.0
100
AcDbText
  0
TEXT
  5
271
100
AcDbEntity
  8
1
  6
CONTINUOUS
 62
     7
100
AcDbText
 10
1058.1583
 20
-248.4485
 30
0.0
 40
2.7
  1
10
  7
MONOTXT
 72
     4
 11
1059.8165
 21
-247.0985
 31
0.0
210
0.0
220
0.0
230
1.0
100
AcDbText
  0
TEXT
  5
272
100
AcDbEntity
  8
1
  6
CONTINUOUS
 62
     7
100
AcDbText
 10
1058.1583
 20
-252.3485
 30
0.0
 40
2.7
  1
15
  7
MONOTXT
 72
     4
 11
1059.8271
 21
-250.9985
 31
0.0
210
0.0
220
0.0
230
1.0
100
AcDbText
  0
TEXT
  5
273
100
AcDbEntity
  8
1
  6
CONTINUOUS
 62
     7
100
AcDbText
 10
1057.5843
 20
-256.2485
 30
0.0
 40
2.7
  1
20
  7
MONOTXT
 72
     4
 11
1059.8165
 21
-254.8985
 31
0.0
210
0.0
220
0.0
230
1.0
100
AcDbText
  0
TEXT
  5
274
100
AcDbEntity
  8
1
  6
CONTINUOUS
 62
     7
100
AcDbText
 10
1057.5843
 20
-260.1485
 30
0.0
 40
2.7
  1
25
  7
MONOTXT
 72
     4
 11
1059.8272
 21
-258.7985
 31
0.0
210
0.0
220
0.0
230
1.0
100
AcDbText
  0
TEXT
  5
275
100
AcDbEntity
  8
1
  6
CONTINUOUS
 62
     7
100
AcDbText
 10
1057.5843
 20
-264.0485
 30
0.0
 40
2.7
  1
30
  7
MONOTXT
 72
     4
 11
1059.8165
 21
-262.6985
 31
0.0
210
0.0
220
0.0
230
1.0
100
AcDbText
  0
TEXT
  5
276
100
AcDbEntity
  8
1
  6
CONTINUOUS
 62
     7
100
AcDbText
 10
1057.5843
 20
-267.9485
 30
0.0
 40
2.7
  1
35
  7
MONOTXT
 72
     4
 11
1059.8272
 21
-266.5985
 31
0.0
210
0.0
220
0.0
230
1.0
100
AcDbText
  0
TEXT
  5
277
100
AcDbEntity
  8
1
  6
CONTINUOUS
 62
     7
100
AcDbText
 10
1057.5205
 20
-271.8485
 30
0.0
 40
2.7
  1
40
  7
MONOTXT
 72
     4
 11
1059.8165
 21
-270.4985
 31
0.0
210
0.0
220
0.0
230
1.0
100
AcDbText
  0
TEXT
  5
278
100
AcDbEntity
  8
1
  6
CONTINUOUS
 62
     7
100
AcDbText
 10
1057.5205
 20
-275.7485
 30
0.0
 40
2.7
  1
45
  7
MONOTXT
 72
     4
 11
1059.8271
 21
-274.3985
 31
0.0
210
0.0
220
0.0
230
1.0
100
AcDbText
  0
TEXT
  5
279
100
AcDbEntity
  8
1
  6
CONTINUOUS
 62
     7
100
AcDbText
 10
1058.9131
 20
-279.6485
 30
0.0
 40
2.7
  1
 
  7
MONOTXT
 72
     4
 11
1059.8131
 21
-278.2985
 31
0.0
210
0.0
220
0.0
230
1.0
100
AcDbText
  0
TEXT
  5
27A
100
AcDbEntity
  8
1
  6
CONTINUOUS
 62
     7
100
AcDbText
 10
1058.1583
 20
-283.5485
 30
0.0
 40
2.7
  1
10
  7
MONOTXT
 72
     4
 11
1059.8165
 21
-282.1985
 31
0.0
210
0.0
220
0.0
230
1.0
100
AcDbText
  0
TEXT
  5
27B
100
AcDbEntity
  8
1
  6
CONTINUOUS
 62
     7
100
AcDbText
 10
1058.1583
 20
-287.4485
 30
0.0
 40
2.7
  1
15
  7
MONOTXT
 72
     4
 11
1059.8271
 21
-286.0985
 31
0.0
210
0.0
220
0.0
230
1.0
100
AcDbText
  0
TEXT
  5
27C
100
AcDbEntity
  8
1
  6
CONTINUOUS
 62
     7
100
AcDbText
 10
1057.5843
 20
-291.3485
 30
0.0
 40
2.7
  1
20
  7
MONOTXT
 72
     4
 11
1059.8165
 21
-289.9985
 31
0.0
210
0.0
220
0.0
230
1.0
100
AcDbText
  0
TEXT
  5
27D
100
AcDbEntity
  8
1
  6
CONTINUOUS
 62
     7
100
AcDbText
 10
1057.5843
 20
-295.2485
 30
0.0
 40
2.7
  1
25
  7
MONOTXT
 72
     4
 11
1059.8272
 21
-293.8985
 31
0.0
210
0.0
220
0.0
230
1.0
100
AcDbText
  0
TEXT
  5
27E
100
AcDbEntity
  8
1
  6
CONTINUOUS
 62
     7
100
AcDbText
 10
1057.5843
 20
-299.1485
 30
0.0
 40
2.7
  1
30
  7
MONOTXT
 72
     4
 11
1059.8165
 21
-297.7985
 31
0.0
210
0.0
220
0.0
230
1.0
100
AcDbText
  0
TEXT
  5
27F
100
AcDbEntity
  8
1
  6
CONTINUOUS
 62
     7
100
AcDbText
 10
1057.5843
 20
-303.0485
 30
0.0
 40
2.7
  1
35
  7
MONOTXT
 72
     4
 11
1059.8272
 21
-301.6985
 31
0.0
210
0.0
220
0.0
230
1.0
100
AcDbText
  0
TEXT
  5
280
100
AcDbEntity
  8
1
  6
CONTINUOUS
 62
     7
100
AcDbText
 10
1057.5205
 20
-306.9485
 30
0.0
 40
2.7
  1
40
  7
MONOTXT
 72
     4
 11
1059.8165
 21
-305.5985
 31
0.0
210
0.0
220
0.0
230
1.0
100
AcDbText
  0
TEXT
  5
281
100
AcDbEntity
  8
1
  6
CONTINUOUS
 62
     7
100
AcDbText
 10
1057.5205
 20
-310.8485
 30
0.0
 40
2.7
  1
45
  7
MONOTXT
 72
     4
 11
1059.8271
 21
-309.4985
 31
0.0
210
0.0
220
0.0
230
1.0
100
AcDbText
  0
TEXT
  5
282
100
AcDbEntity
  8
1
  6
CONTINUOUS
 62
     7
100
AcDbText
 10
1057.5843
 20
-314.7485
 30
0.0
 40
2.7
  1
50
  7
MONOTXT
 72
     4
 11
1059.8165
 21
-313.3985
 31
0.0
210
0.0
220
0.0
230
1.0
100
AcDbText
  0
TEXT
  5
283
100
AcDbEntity
  8
1
  6
CONTINUOUS
 62
     7
100
AcDbText
 10
888.8847
 20
-217.2798
 30
0.0
 40
2.7
  1
10
  7
MONOTXT
 72
     4
 11
890.5429
 21
-215.9298
 31
0.0
210
0.0
220
0.0
230
1.0
100
AcDbText
  0
TEXT
  5
284
100
AcDbEntity
  8
1
  6
CONTINUOUS
 62
     7
100
AcDbText
 10
888.8847
 20
-221.1798
 30
0.0
 40
2.7
  1
15
  7
MONOTXT
 72
     4
 11
890.5535
 21
-219.8298
 31
0.0
210
0.0
220
0.0
230
1.0
100
AcDbText
  0
TEXT
  5
285
100
AcDbEntity
  8
1
  6
CONTINUOUS
 62
     7
100
AcDbText
 10
888.3107
 20
-225.0798
 30
0.0
 40
2.7
  1
20
  7
MONOTXT
 72
     4
 11
890.5429
 21
-223.7298
 31
0.0
210
0.0
220
0.0
230
1.0
100
AcDbText
  0
TEXT
  5
286
100
AcDbEntity
  8
1
  6
CONTINUOUS
 62
     7
100
AcDbText
 10
889.6395
 20
-228.9798
 30
0.0
 40
2.7
  1
 
  7
MONOTXT
 72
     4
 11
890.5395
 21
-227.6298
 31
0.0
210
0.0
220
0.0
230
1.0
100
AcDbText
  0
TEXT
  5
287
100
AcDbEntity
  8
1
  6
CONTINUOUS
 62
     7
100
AcDbText
 10
888.8847
 20
-232.8798
 30
0.0
 40
2.7
  1
10
  7
MONOTXT
 72
     4
 11
890.5429
 21
-231.5298
 31
0.0
210
0.0
220
0.0
230
1.0
100
AcDbText
  0
TEXT
  5
288
100
AcDbEntity
  8
1
  6
CONTINUOUS
 62
     7
100
AcDbText
 10
888.8847
 20
-236.7798
 30
0.0
 40
2.7
  1
15
  7
MONOTXT
 72
     4
 11
890.5535
 21
-235.4298
 31
0.0
210
0.0
220
0.0
230
1.0
100
AcDbText
  0
TEXT
  5
289
100
AcDbEntity
  8
1
  6
CONTINUOUS
 62
     7
100
AcDbText
 10
888.3107
 20
-240.6798
 30
0.0
 40
2.7
  1
20
  7
MONOTXT
 72
     4
 11
890.5429
 21
-239.3298
 31
0.0
210
0.0
220
0.0
230
1.0
100
AcDbText
  0
TEXT
  5
28A
100
AcDbEntity
  8
1
  6
CONTINUOUS
 62
     7
100
AcDbText
 10
888.3107
 20
-244.5798
 30
0.0
 40
2.7
  1
25
  7
MONOTXT
 72
     4
 11
890.5536
 21
-243.2298
 31
0.0
210
0.0
220
0.0
230
1.0
100
AcDbText
  0
TEXT
  5
28B
100
AcDbEntity
  8
1
  6
CONTINUOUS
 62
     7
100
AcDbText
 10
889.6395
 20
-248.4798
 30
0.0
 40
2.7
  1
 
  7
MONOTXT
 72
     4
 11
890.5395
 21
-247.1298
 31
0.0
210
0.0
220
0.0
230
1.0
100
AcDbText
  0
TEXT
  5
28C
100
AcDbEntity
  8
1
  6
CONTINUOUS
 62
     7
100
AcDbText
 10
888.8847
 20
-252.3798
 30
0.0
 40
2.7
  1
10
  7
MONOTXT
 72
     4
 11
890.5429
 21
-251.0298
 31
0.0
210
0.0
220
0.0
230
1.0
100
AcDbText
  0
TEXT
  5
28D
100
AcDbEntity
  8
1
  6
CONTINUOUS
 62
     7
100
AcDbText
 10
888.8847
 20
-256.2798
 30
0.0
 40
2.7
  1
15
  7
MONOTXT
 72
     4
 11
890.5535
 21
-254.9298
 31
0.0
210
0.0
220
0.0
230
1.0
100
AcDbText
  0
TEXT
  5
28E
100
AcDbEntity
  8
1
  6
CONTINUOUS
 62
     7
100
AcDbText
 10
888.3107
 20
-260.1798
 30
0.0
 40
2.7
  1
20
  7
MONOTXT
 72
     4
 11
890.5429
 21
-258.8298
 31
0.0
210
0.0
220
0.0
230
1.0
100
AcDbText
  0
TEXT
  5
28F
100
AcDbEntity
  8
1
  6
CONTINUOUS
 62
     7
100
AcDbText
 10
888.3107
 20
-264.0798
 30
0.0
 40
2.7
  1
25
  7
MONOTXT
 72
     4
 11
890.5536
 21
-262.7298
 31
0.0
210
0.0
220
0.0
230
1.0
100
AcDbText
  0
TEXT
  5
290
100
AcDbEntity
  8
1
  6
CONTINUOUS
 62
     7
100
AcDbText
 10
888.3107
 20
-267.9798
 30
0.0
 40
2.7
  1
30
  7
MONOTXT
 72
     4
 11
890.5429
 21
-266.6298
 31
0.0
210
0.0
220
0.0
230
1.0
100
AcDbText
  0
TEXT
  5
291
100
AcDbEntity
  8
1
  6
CONTINUOUS
 62
     7
100
AcDbText
 10
889.6395
 20
-271.8798
 30
0.0
 40
2.7
  1
 
  7
MONOTXT
 72
     4
 11
890.5395
 21
-270.5298
 31
0.0
210
0.0
220
0.0
230
1.0
100
AcDbText
  0
TEXT
  5
292
100
AcDbEntity
  8
1
  6
CONTINUOUS
 62
     7
100
AcDbText
 10
888.8847
 20
-275.7798
 30
0.0
 40
2.7
  1
10
  7
MONOTXT
 72
     4
 11
890.5429
 21
-274.4298
 31
0.0
210
0.0
220
0.0
230
1.0
100
AcDbText
  0
TEXT
  5
293
100
AcDbEntity
  8
1
  6
CONTINUOUS
 62
     7
100
AcDbText
 10
888.8847
 20
-279.6798
 30
0.0
 40
2.7
  1
15
  7
MONOTXT
 72
     4
 11
890.5535
 21
-278.3298
 31
0.0
210
0.0
220
0.0
230
1.0
100
AcDbText
  0
TEXT
  5
294
100
AcDbEntity
  8
1
  6
CONTINUOUS
 62
     7
100
AcDbText
 10
888.3107
 20
-283.5798
 30
0.0
 40
2.7
  1
20
  7
MONOTXT
 72
     4
 11
890.5429
 21
-282.2298
 31
0.0
210
0.0
220
0.0
230
1.0
100
AcDbText
  0
TEXT
  5
295
100
AcDbEntity
  8
1
  6
CONTINUOUS
 62
     7
100
AcDbText
 10
888.3107
 20
-287.4798
 30
0.0
 40
2.7
  1
25
  7
MONOTXT
 72
     4
 11
890.5536
 21
-286.1298
 31
0.0
210
0.0
220
0.0
230
1.0
100
AcDbText
  0
TEXT
  5
296
100
AcDbEntity
  8
1
  6
CONTINUOUS
 62
     7
100
AcDbText
 10
888.3107
 20
-291.3798
 30
0.0
 40
2.7
  1
30
  7
MONOTXT
 72
     4
 11
890.5429
 21
-290.0298
 31
0.0
210
0.0
220
0.0
230
1.0
100
AcDbText
  0
TEXT
  5
297
100
AcDbEntity
  8
1
  6
CONTINUOUS
 62
     7
100
AcDbText
 10
888.3107
 20
-295.2798
 30
0.0
 40
2.7
  1
35
  7
MONOTXT
 72
     4
 11
890.5536
 21
-293.9298
 31
0.0
210
0.0
220
0.0
230
1.0
100
AcDbText
  0
TEXT
  5
298
100
AcDbEntity
  8
1
  6
CONTINUOUS
 62
     7
100
AcDbText
 10
941.8647
 20
-217.9389
 30
0.0
 40
2.7
  1
30m
  7
MONOTXT
 72
     4
 11
945.9253
 21
-216.5889
 31
0.0
210
0.0
220
0.0
230
1.0
100
AcDbText
  0
TEXT
  5
299
100
AcDbEntity
  8
1
  6
CONTINUOUS
 62
     7
100
AcDbText
 10
941.8647
 20
-221.8389
 30
0.0
 40
2.7
  1
30m
  7
MONOTXT
 72
     4
 11
945.9253
 21
-220.4889
 31
0.0
210
0.0
220
0.0
230
1.0
100
AcDbText
  0
TEXT
  5
29A
100
AcDbEntity
  8
1
  6
CONTINUOUS
 62
     7
100
AcDbText
 10
941.8647
 20
-225.7389
 30
0.0
 40
2.7
  1
30m
  7
MONOTXT
 72
     4
 11
945.9253
 21
-224.3889
 31
0.0
210
0.0
220
0.0
230
1.0
100
AcDbText
  0
TEXT
  5
29B
100
AcDbEntity
  8
1
  6
CONTINUOUS
 62
     7
100
AcDbText
 10
945.0218
 20
-229.6389
 30
0.0
 40
2.7
  1
 
  7
MONOTXT
 72
     4
 11
945.9218
 21
-228.2889
 31
0.0
210
0.0
220
0.0
230
1.0
100
AcDbText
  0
TEXT
  5
29C
100
AcDbEntity
  8
1
  6
CONTINUOUS
 62
     7
100
AcDbText
 10
941.8009
 20
-233.5389
 30
0.0
 40
2.7
  1
45m
  7
MONOTXT
 72
     4
 11
945.9253
 21
-232.1889
 31
0.0
210
0.0
220
0.0
230
1.0
100
AcDbText
  0
TEXT
  5
29D
100
AcDbEntity
  8
1
  6
CONTINUOUS
 62
     7
100
AcDbText
 10
941.8647
 20
-237.4389
 30
0.0
 40
2.7
  1
38m
  7
MONOTXT
 72
     4
 11
945.9253
 21
-236.0889
 31
0.0
210
0.0
220
0.0
230
1.0
100
AcDbText
  0
TEXT
  5
29E
100
AcDbEntity
  8
1
  6
CONTINUOUS
 62
     7
100
AcDbText
 10
941.8647
 20
-241.3389
 30
0.0
 40
2.7
  1
30m
  7
MONOTXT
 72
     4
 11
945.9253
 21
-239.9889
 31
0.0
210
0.0
220
0.0
230
1.0
100
AcDbText
  0
TEXT
  5
29F
100
AcDbEntity
  8
1
  6
CONTINUOUS
 62
     7
100
AcDbText
 10
941.8647
 20
-245.2389
 30
0.0
 40
2.7
  1
30m
  7
MONOTXT
 72
     4
 11
945.9253
 21
-243.8889
 31
0.0
210
0.0
220
0.0
230
1.0
100
AcDbText
  0
TEXT
  5
2A0
100
AcDbEntity
  8
1
  6
CONTINUOUS
 62
     7
100
AcDbText
 10
945.0218
 20
-249.1389
 30
0.0
 40
2.7
  1
 
  7
MONOTXT
 72
     4
 11
945.9218
 21
-247.7889
 31
0.0
210
0.0
220
0.0
230
1.0
100
AcDbText
  0
TEXT
  5
2A1
100
AcDbEntity
  8
1
  6
CONTINUOUS
 62
     7
100
AcDbText
 10
941.9285
 20
-253.0389
 30
0.0
 40
2.7
  1
60m
  7
MONOTXT
 72
     4
 11
945.9253
 21
-251.6889
 31
0.0
210
0.0
220
0.0
230
1.0
100
AcDbText
  0
TEXT
  5
2A2
100
AcDbEntity
  8
1
  6
CONTINUOUS
 62
     7
100
AcDbText
 10
941.9285
 20
-256.9389
 30
0.0
 40
2.7
  1
56m
  7
MONOTXT
 72
     4
 11
945.9253
 21
-255.5889
 31
0.0
210
0.0
220
0.0
230
1.0
100
AcDbText
  0
TEXT
  5
2A3
100
AcDbEntity
  8
1
  6
CONTINUOUS
 62
     7
100
AcDbText
 10
941.8647
 20
-260.8389
 30
0.0
 40
2.7
  1
53m
  7
MONOTXT
 72
     4
 11
945.9253
 21
-259.4889
 31
0.0
210
0.0
220
0.0
230
1.0
100
AcDbText
  0
TEXT
  5
2A4
100
AcDbEntity
  8
1
  6
CONTINUOUS
 62
     7
100
AcDbText
 10
941.8009
 20
-264.7389
 30
0.0
 40
2.7
  1
48m
  7
MONOTXT
 72
     4
 11
945.9253
 21
-263.3889
 31
0.0
210
0.0
220
0.0
230
1.0
100
AcDbText
  0
TEXT
  5
2A5
100
AcDbEntity
  8
1
  6
CONTINUOUS
 62
     7
100
AcDbText
 10
941.8009
 20
-268.6389
 30
0.0
 40
2.7
  1
45m
  7
MONOTXT
 72
     4
 11
945.9253
 21
-267.2889
 31
0.0
210
0.0
220
0.0
230
1.0
100
AcDbText
  0
TEXT
  5
2A6
100
AcDbEntity
  8
1
  6
CONTINUOUS
 62
     7
100
AcDbText
 10
945.0218
 20
-272.5389
 30
0.0
 40
2.7
  1
 
  7
MONOTXT
 72
     4
 11
945.9218
 21
-271.1889
 31
0.0
210
0.0
220
0.0
230
1.0
100
AcDbText
  0
TEXT
  5
2A7
100
AcDbEntity
  8
1
  6
CONTINUOUS
 62
     7
100
AcDbText
 10
941.8647
 20
-276.4389
 30
0.0
 40
2.7
  1
83m
  7
MONOTXT
 72
     4
 11
945.9253
 21
-275.0889
 31
0.0
210
0.0
220
0.0
230
1.0
100
AcDbText
  0
TEXT
  5
2A8
100
AcDbEntity
  8
1
  6
CONTINUOUS
 62
     7
100
AcDbText
 10
941.8647
 20
-280.3389
 30
0.0
 40
2.7
  1
80m
  7
MONOTXT
 72
     4
 11
945.9253
 21
-278.9889
 31
0.0
210
0.0
220
0.0
230
1.0
100
AcDbText
  0
TEXT
  5
2A9
100
AcDbEntity
  8
1
  6
CONTINUOUS
 62
     7
100
AcDbText
 10
941.8434
 20
-284.2389
 30
0.0
 40
2.7
  1
75m
  7
MONOTXT
 72
     4
 11
945.9253
 21
-282.8889
 31
0.0
210
0.0
220
0.0
230
1.0
100
AcDbText
  0
TEXT
  5
2AA
100
AcDbEntity
  8
1
  6
CONTINUOUS
 62
     7
100
AcDbText
 10
941.9285
 20
-288.1389
 30
0.0
 40
2.7
  1
63m
  7
MONOTXT
 72
     4
 11
945.9253
 21
-286.7889
 31
0.0
210
0.0
220
0.0
230
1.0
100
AcDbText
  0
TEXT
  5
2AB
100
AcDbEntity
  8
1
  6
CONTINUOUS
 62
     7
100
AcDbText
 10
941.8647
 20
-292.0389
 30
0.0
 40
2.7
  1
53m
  7
MONOTXT
 72
     4
 11
945.9253
 21
-290.6889
 31
0.0
210
0.0
220
0.0
230
1.0
100
AcDbText
  0
TEXT
  5
2AC
100
AcDbEntity
  8
1
  6
CONTINUOUS
 62
     7
100
AcDbText
 10
941.8009
 20
-295.9389
 30
0.0
 40
2.7
  1
45m
  7
MONOTXT
 72
     4
 11
945.9253
 21
-294.5889
 31
0.0
210
0.0
220
0.0
230
1.0
100
AcDbText
  0
TEXT
  5
2AD
100
AcDbEntity
  8
1
  6
CONTINUOUS
 62
     7
100
AcDbText
 10
1109.2844
 20
-217.3278
 30
0.0
 40
2.7
  1
107m
  7
MONOTXT
 72
     4
 11
1114.1316
 21
-215.9778
 31
0.0
210
0.0
220
0.0
230
1.0
100
AcDbText
  0
TEXT
  5
2AE
100
AcDbEntity
  8
1
  6
CONTINUOUS
 62
     7
100
AcDbText
 10
1110.1348
 20
-221.2278
 30
0.0
 40
2.7
  1
98m
  7
MONOTXT
 72
     4
 11
1114.1316
 21
-219.8778
 31
0.0
210
0.0
220
0.0
230
1.0
100
AcDbText
  0
TEXT
  5
2AF
100
AcDbEntity
  8
1
  6
CONTINUOUS
 62
     7
100
AcDbText
 10
1110.1348
 20
-225.1278
 30
0.0
 40
2.7
  1
90m
  7
MONOTXT
 72
     4
 11
1114.1316
 21
-223.7778
 31
0.0
210
0.0
220
0.0
230
1.0
100
AcDbText
  0
TEXT
  5
2B0
100
AcDbEntity
  8
1
  6
CONTINUOUS
 62
     7
100
AcDbText
 10
1110.071
 20
-229.0278
 30
0.0
 40
2.7
  1
83m
  7
MONOTXT
 72
     4
 11
1114.1316
 21
-227.6778
 31
0.0
210
0.0
220
0.0
230
1.0
100
AcDbText
  0
TEXT
  5
2B1
100
AcDbEntity
  8
1
  6
CONTINUOUS
 62
     7
100
AcDbText
 10
1110.0497
 20
-232.9278
 30
0.0
 40
2.7
  1
75m
  7
MONOTXT
 72
     4
 11
1114.1316
 21
-231.5778
 31
0.0
210
0.0
220
0.0
230
1.0
100
AcDbText
  0
TEXT
  5
2B2
100
AcDbEntity
  8
1
  6
CONTINUOUS
 62
     7
100
AcDbText
 10
1110.1348
 20
-236.8278
 30
0.0
 40
2.7
  1
68m
  7
MONOTXT
 72
     4
 11
1114.1316
 21
-235.4778
 31
0.0
210
0.0
220
0.0
230
1.0
100
AcDbText
  0
TEXT
  5
2B3
100
AcDbEntity
  8
1
  6
CONTINUOUS
 62
     7
100
AcDbText
 10
1110.1348
 20
-240.7278
 30
0.0
 40
2.7
  1
60m
  7
MONOTXT
 72
     4
 11
1114.1316
 21
-239.3778
 31
0.0
210
0.0
220
0.0
230
1.0
100
AcDbText
  0
TEXT
  5
2B4
100
AcDbEntity
  8
1
  6
CONTINUOUS
 62
     7
100
AcDbText
 10
1113.2281
 20
-244.6278
 30
0.0
 40
2.7
  1
 
  7
MONOTXT
 72
     4
 11
1114.1281
 21
-243.2778
 31
0.0
210
0.0
220
0.0
230
1.0
100
AcDbText
  0
TEXT
  5
2B5
100
AcDbEntity
  8
1
  6
CONTINUOUS
 62
     7
100
AcDbText
 10
1109.3056
 20
-248.5278
 30
0.0
 40
2.7
  1
130m
  7
MONOTXT
 72
     4
 11
1114.1316
 21
-247.1778
 31
0.0
210
0.0
220
0.0
230
1.0
100
AcDbText
  0
TEXT
  5
2B6
100
AcDbEntity
  8
1
  6
CONTINUOUS
 62
     7
100
AcDbText
 10
1109.3694
 20
-252.4278
 30
0.0
 40
2.7
  1
126m
  7
MONOTXT
 72
     4
 11
1114.1316
 21
-251.0778
 31
0.0
210
0.0
220
0.0
230
1.0
100
AcDbText
  0
TEXT
  5
2B7
100
AcDbEntity
  8
1
  6
CONTINUOUS
 62
     7
100
AcDbText
 10
1109.3056
 20
-256.3278
 30
0.0
 40
2.7
  1
120m
  7
MONOTXT
 72
     4
 11
1114.1316
 21
-254.9778
 31
0.0
210
0.0
220
0.0
230
1.0
100
AcDbText
  0
TEXT
  5
2B8
100
AcDbEntity
  8
1
  6
CONTINUOUS
 62
     7
100
AcDbText
 10
1109.8158
 20
-260.2278
 30
0.0
 40
2.7
  1
114m
  7
MONOTXT
 72
     4
 11
1114.1316
 21
-258.8778
 31
0.0
210
0.0
220
0.0
230
1.0
100
AcDbText
  0
TEXT
  5
2B9
100
AcDbEntity
  8
1
  6
CONTINUOUS
 62
     7
100
AcDbText
 10
1110.1348
 20
-264.1278
 30
0.0
 40
2.7
  1
98m
  7
MONOTXT
 72
     4
 11
1114.1316
 21
-262.7778
 31
0.0
210
0.0
220
0.0
230
1.0
100
AcDbText
  0
TEXT
  5
2BA
100
AcDbEntity
  8
1
  6
CONTINUOUS
 62
     7
100
AcDbText
 10
1110.0497
 20
-268.0278
 30
0.0
 40
2.7
  1
87m
  7
MONOTXT
 72
     4
 11
1114.1316
 21
-266.6778
 31
0.0
210
0.0
220
0.0
230
1.0
100
AcDbText
  0
TEXT
  5
2BB
100
AcDbEntity
  8
1
  6
CONTINUOUS
 62
     7
100
AcDbText
 10
1110.1348
 20
-271.9278
 30
0.0
 40
2.7
  1
68m
  7
MONOTXT
 72
     4
 11
1114.1316
 21
-270.5778
 31
0.0
210
0.0
220
0.0
230
1.0
100
AcDbText
  0
TEXT
  5
2BC
100
AcDbEntity
  8
1
  6
CONTINUOUS
 62
     7
100
AcDbText
 10
1110.1348
 20
-275.8278
 30
0.0
 40
2.7
  1
60m
  7
MONOTXT
 72
     4
 11
1114.1316
 21
-274.4778
 31
0.0
210
0.0
220
0.0
230
1.0
100
AcDbText
  0
TEXT
  5
2BD
100
AcDbEntity
  8
1
  6
CONTINUOUS
 62
     7
100
AcDbText
 10
1113.2281
 20
-279.7278
 30
0.0
 40
2.7
  1
 
  7
MONOTXT
 72
     4
 11
1114.1281
 21
-278.3778
 31
0.0
210
0.0
220
0.0
230
1.0
100
AcDbText
  0
TEXT
  5
2BE
100
AcDbEntity
  8
1
  6
CONTINUOUS
 62
     7
100
AcDbText
 10
1109.3056
 20
-283.6278
 30
0.0
 40
2.7
  1
150m
  7
MONOTXT
 72
     4
 11
1114.1316
 21
-282.2778
 31
0.0
210
0.0
220
0.0
230
1.0
100
AcDbText
  0
TEXT
  5
2BF
100
AcDbEntity
  8
1
  6
CONTINUOUS
 62
     7
100
AcDbText
 10
1109.178
 20
-287.5278
 30
0.0
 40
2.7
  1
144m
  7
MONOTXT
 72
     4
 11
1114.1316
 21
-286.1778
 31
0.0
210
0.0
220
0.0
230
1.0
100
AcDbText
  0
TEXT
  5
2C0
100
AcDbEntity
  8
1
  6
CONTINUOUS
 62
     7
100
AcDbText
 10
1109.2418
 20
-291.4278
 30
0.0
 40
2.7
  1
143m
  7
MONOTXT
 72
     4
 11
1114.1316
 21
-290.0778
 31
0.0
210
0.0
220
0.0
230
1.0
100
AcDbText
  0
TEXT
  5
2C1
100
AcDbEntity
  8
1
  6
CONTINUOUS
 62
     7
100
AcDbText
 10
1109.3056
 20
-295.3278
 30
0.0
 40
2.7
  1
135m
  7
MONOTXT
 72
     4
 11
1114.1316
 21
-293.9778
 31
0.0
210
0.0
220
0.0
230
1.0
100
AcDbText
  0
TEXT
  5
2C2
100
AcDbEntity
  8
1
  6
CONTINUOUS
 62
     7
100
AcDbText
 10
1109.3056
 20
-299.2278
 30
0.0
 40
2.7
  1
120m
  7
MONOTXT
 72
     4
 11
1114.1316
 21
-297.8778
 31
0.0
210
0.0
220
0.0
230
1.0
100
AcDbText
  0
TEXT
  5
2C3
100
AcDbEntity
  8
1
  6
CONTINUOUS
 62
     7
100
AcDbText
 10
1109.8796
 20
-303.1278
 30
0.0
 40
2.7
  1
110m
  7
MONOTXT
 72
     4
 11
1114.1316
 21
-301.7778
 31
0.0
210
0.0
220
0.0
230
1.0
100
AcDbText
  0
TEXT
  5
2C4
100
AcDbEntity
  8
1
  6
CONTINUOUS
 62
     7
100
AcDbText
 10
1110.1348
 20
-307.0278
 30
0.0
 40
2.7
  1
90m
  7
MONOTXT
 72
     4
 11
1114.1316
 21
-305.6778
 31
0.0
210
0.0
220
0.0
230
1.0
100
AcDbText
  0
TEXT
  5
2C5
100
AcDbEntity
  8
1
  6
CONTINUOUS
 62
     7
100
AcDbText
 10
1110.071
 20
-310.9278
 30
0.0
 40
2.7
  1
83m
  7
MONOTXT
 72
     4
 11
1114.1316
 21
-309.5778
 31
0.0
210
0.0
220
0.0
230
1.0
100
AcDbText
  0
TEXT
  5
2C6
100
AcDbEntity
  8
1
  6
CONTINUOUS
 62
     7
100
AcDbText
 10
1110.0497
 20
-314.8278
 30
0.0
 40
2.7
  1
75m
  7
MONOTXT
 72
     4
 11
1114.1316
 21
-313.4778
 31
0.0
210
0.0
220
0.0
230
1.0
100
AcDbText
  0
TEXT
  5
2C7
100
AcDbEntity
  8
1
  6
CONTINUOUS
 62
     7
100
AcDbText
 10
897.4629
 20
-176.7042
 30
0.0
 40
4.8
  1
CHART FOR ADVISORY CURVE DRAWINGS
  7
MONOTXT
 72
     4
 11
973.7904
 21
-174.3042
 31
0.0
210
0.0
220
0.0
230
1.0
100
AcDbText
  0
LINE
  5
2C8
100
AcDbEntity
  8
1
  6
CONTINUOUS
 62
     7
100
AcDbLine
 10
894.9448
 20
-178.7918
 30
0.0
 11
1052.6453
 21
-178.7918
 31
0.0
  0
TEXT
  5
2C9
100
AcDbEntity
  8
1
  6
CONTINUOUS
 62
     7
100
AcDbText
 10
678.4378
 20
-177.2702
 30
0.0
 40
2.4
  1
GENERAL NOTES
  7
MONOTXT
 72
     4
 11
693.244
 21
-176.0702
 31
0.0
210
0.0
220
0.0
230
1.0
100
AcDbText
  0
LINE
  5
2CA
100
AcDbEntity
  8
1
  6
CONTINUOUS
 62
     7
100
AcDbLine
 10
677.584
 20
-178.3067
 30
0.0
 11
708.9822
 21
-178.3067
 31
0.0
  0
LWPOLYLINE
  5
2CB
100
AcDbEntity
  8
1
  6
CONTINUOUS
 62
     7
100
AcDbPolyline
 90
        4
 70
     0
 10
1156.2459
 20
-203.9876
 10
1153.8459
 20
-208.1445
 10
1158.6459
 20
-208.1445
 10
1156.2459
 20
-203.9876
  0
LWPOLYLINE
  5
2CC
100
AcDbEntity
  8
1
  6
CONTINUOUS
 62
     7
100
AcDbPolyline
 90
        4
 70
     0
 10
1156.2459
 20
-198.5819
 10
1153.8459
 20
-202.7388
 10
1158.6459
 20
-202.7388
 10
1156.2459
 20
-198.5819
  0
LWPOLYLINE
  5
2CD
100
AcDbEntity
  8
1
  6
CONTINUOUS
 62
     7
100
AcDbPolyline
 90
        4
 70
     0
 10
1159.8798
 20
-292.5803
 10
1157.4798
 20
-296.7372
 10
1162.2798
 20
-296.7372
 10
1159.8798
 20
-292.5803
  0
LWPOLYLINE
  5
2CE
100
AcDbEntity
  8
1
  6
CONTINUOUS
 62
     7
100
AcDbPolyline
 90
        4
 70
     0
 10
1159.881
 20
-298.34
 10
1157.481
 20
-302.4969
 10
1162.281
 20
-302.4969
 10
1159.881
 20
-298.34
  0
TEXT
  5
2CF
100
AcDbEntity
  8
1
  6
CONTINUOUS
 62
     1
100
AcDbText
 10
1166.7858
 20
-257.1406
 30
0.0
 40
8.3912
  1
TYPICAL LAYOUT FOR ADVISORY
  7
TXT
 72
     1
 11
1261.1486
 21
-248.7494
 31
0.0
210
0.0
220
0.0
230
1.0
100
AcDbText
 73
     3
  0
TEXT
  5
2D0
100
AcDbEntity
  8
1
  6
CONTINUOUS
 62
     1
100
AcDbText
 10
1215.8753
 20
-269.0774
 30
0.0
 40
8.3912
  1
CURVE SIGNING
  7
TXT
 72
     1
 11
1261.3543
 21
-260.6862
 31
0.0
210
0.0
220
0.0
230
1.0
100
AcDbText
 73
     3
  0
TEXT
  5
2D1
100
AcDbEntity
  8
1
  6
CONTINUOUS
 62
     7
100
AcDbText
 10
1155.8892
 20
-201.9811
 30
0.0
 40
1.8
  1
1
  7
MONOTXT
 72
     4
 11
1156.1018
 21
-201.0811
 31
0.0
210
0.0
220
0.0
230
1.0
100
AcDbText
  0
TEXT
  5
2D2
100
AcDbEntity
  8
1
  6
CONTINUOUS
 62
     7
100
AcDbText
 10
1155.6506
 20
-207.3868
 30
0.0
 40
1.8
  1
2
  7
MONOTXT
 72
     4
 11
1156.2529
 21
-206.4868
 31
0.0
210
0.0
220
0.0
230
1.0
100
AcDbText
  0
TEXT
  5
2D3
100
AcDbEntity
  8
1
  6
CONTINUOUS
 62
     7
100
AcDbText
 10
1159.6977
 20
-201.5486
 30
0.0
 40
1.8
  1
DELETED SIGNATURE BLOCK
  7
MONOTXT
 72
     4
 11
1179.0937
 21
-200.6486
 31
0.0
210
0.0
220
0.0
230
1.0
100
AcDbText
  0
TEXT
  5
2D4
100
AcDbEntity
  8
1
  6
CONTINUOUS
 62
     7
100
AcDbText
 10
1159.7066
 20
-206.9543
 30
0.0
 40
1.8
  1
CHANGED CHART
  7
MONOTXT
 72
     4
 11
1171.0238
 21
-206.0543
 31
0.0
210
0.0
220
0.0
230
1.0
100
AcDbText
  0
TEXT
  5
2D5
100
AcDbEntity
  8
1
  6
CONTINUOUS
 62
     7
100
AcDbText
 10
1159.6221
 20
-296.0158
 30
0.0
 40
1.8
  1
1
  7
MONOTXT
 72
     4
 11
1159.8347
 21
-295.1158
 31
0.0
210
0.0
220
0.0
230
1.0
100
AcDbText
  0
TEXT
  5
2D6
100
AcDbEntity
  8
1
  6
CONTINUOUS
 62
     7
100
AcDbText
 10
1159.2407
 20
-301.8206
 30
0.0
 40
1.8
  1
2
  7
MONOTXT
 72
     4
 11
1159.843
 21
-300.9206
 31
0.0
210
0.0
220
0.0
230
1.0
100
AcDbText
  0
POLYLINE
  5
2D7
100
AcDbEntity
  8
1
  6
CONTINUOUS
 62
     1
100
AcDb2dPolyline
 66
     1
 10
0.0
 20
0.0
 30
0.0
  0
VERTEX
  5
2D8
100
AcDbEntity
  8
1
  6
CONTINUOUS
 62
     1
100
AcDbVertex
100
AcDb2dVertex
 10
800.3157
 20
-71.3059
 30
0.0
  0
VERTEX
  5
2D9
100
AcDbEntity
  8
1
  6
CONTINUOUS
 62
     1
100
AcDbVertex
100
AcDb2dVertex
 10
800.3157
 20
-69.7476
 30
0.0
  0
VERTEX
  5
2DA
100
AcDbEntity
  8
1
  6
CONTINUOUS
 62
     1
100
AcDbVertex
100
AcDb2dVertex
 10
801.6442
 20
-69.7476
 30
0.0
  0
VERTEX
  5
2DB
100
AcDbEntity
  8
1
  6
CONTINUOUS
 62
     1
100
AcDbVertex
100
AcDb2dVertex
 10
801.64904
 20
-69.744022
 30
0.0
 42
-0.241827
  0
VERTEX
  5
2DC
100
AcDbEntity
  8
1
  6
CONTINUOUS
 62
     1
100
AcDbVertex
100
AcDb2dVertex
 10
803.467036
 20
-70.672599
 30
0.0
  0
VERTEX
  5
2DD
100
AcDbEntity
  8
1
  6
CONTINUOUS
 62
     1
100
AcDbVertex
100
AcDb2dVertex
 10
803.4623
 20
-70.6766
 30
0.0
  0
VERTEX
  5
2DE
100
AcDbEntity
  8
1
  6
CONTINUOUS
 62
     1
100
AcDbVertex
100
AcDb2dVertex
 10
805.0205
 20
-72.8342
 30
0.0
  0
VERTEX
  5
2DF
100
AcDbEntity
  8
1
  6
CONTINUOUS
 62
     1
100
AcDbVertex
100
AcDb2dVertex
 10
805.022123
 20
-72.83182
 30
0.0
 42
0.239506
  0
VERTEX
  5
2E0
100
AcDbEntity
  8
1
  6
CONTINUOUS
 62
     1
100
AcDbVertex
100
AcDb2dVertex
 10
805.564725
 20
-73.111511
 30
0.0
  0
VERTEX
  5
2E1
100
AcDbEntity
  8
1
  6
CONTINUOUS
 62
     1
100
AcDbVertex
100
AcDb2dVertex
 10
805.6598
 20
-73.1139
 30
0.0
  0
VERTEX
  5
2E2
100
AcDbEntity
  8
1
  6
CONTINUOUS
 62
     1
100
AcDbVertex
100
AcDb2dVertex
 10
805.3402
 20
-72.0851
 30
0.0
  0
VERTEX
  5
2E3
100
AcDbEntity
  8
1
  6
CONTINUOUS
 62
     1
100
AcDbVertex
100
AcDb2dVertex
 10
805.340971
 20
-72.082246
 30
0.0
 42
-0.686095
  0
VERTEX
  5
2E4
100
AcDbEntity
  8
1
  6
CONTINUOUS
 62
     1
100
AcDbVertex
100
AcDb2dVertex
 10
805.855604
 20
-71.690677
 30
0.0
  0
VERTEX
  5
2E5
100
AcDbEntity
  8
1
  6
CONTINUOUS
 62
     1
100
AcDbVertex
100
AcDb2dVertex
 10
805.8596
 20
-71.6955
 30
0.0
  0
VERTEX
  5
2E6
100
AcDbEntity
  8
1
  6
CONTINUOUS
 62
     1
100
AcDbVertex
100
AcDb2dVertex
 10
809.0361
 20
-73.893
 30
0.0
  0
VERTEX
  5
2E7
100
AcDbEntity
  8
1
  6
CONTINUOUS
 62
     1
100
AcDbVertex
100
AcDb2dVertex
 10
805.8596
 20
-76.1006
 30
0.0
  0
VERTEX
  5
2E8
100
AcDbEntity
  8
1
  6
CONTINUOUS
 62
     1
100
AcDbVertex
100
AcDb2dVertex
 10
805.855604
 20
-76.09862
 30
0.0
 42
-0.686315
  0
VERTEX
  5
2E9
100
AcDbEntity
  8
1
  6
CONTINUOUS
 62
     1
100
AcDbVertex
100
AcDb2dVertex
 10
805.340971
 20
-75.707051
 30
0.0
  0
VERTEX
  5
2EA
100
AcDbEntity
  8
1
  6
CONTINUOUS
 62
     1
100
AcDbVertex
100
AcDb2dVertex
 10
805.3402
 20
-75.7111
 30
0.0
  0
VERTEX
  5
2EB
100
AcDbEntity
  8
1
  6
CONTINUOUS
 62
     1
100
AcDbVertex
100
AcDb2dVertex
 10
805.6598
 20
-74.6822
 30
0.0
  0
VERTEX
  5
2EC
100
AcDbEntity
  8
1
  6
CONTINUOUS
 62
     1
100
AcDbVertex
100
AcDb2dVertex
 10
805.570318
 20
-74.677785
 30
0.0
 42
-0.241827
  0
VERTEX
  5
2ED
100
AcDbEntity
  8
1
  6
CONTINUOUS
 62
     1
100
AcDbVertex
100
AcDb2dVertex
 10
803.752322
 20
-73.749209
 30
0.0
  0
VERTEX
  5
2EE
100
AcDbEntity
  8
1
  6
CONTINUOUS
 62
     1
100
AcDbVertex
100
AcDb2dVertex
 10
803.7519
 20
-73.7532
 30
0.0
  0
VERTEX
  5
2EF
100
AcDbEntity
  8
1
  6
CONTINUOUS
 62
     1
100
AcDbVertex
100
AcDb2dVertex
 10
802.1937
 20
-71.5856
 30
0.0
  0
VERTEX
  5
2F0
100
AcDbEntity
  8
1
  6
CONTINUOUS
 62
     1
100
AcDbVertex
100
AcDb2dVertex
 10
802.197236
 20
-71.589988
 30
0.0
 42
0.242646
  0
VERTEX
  5
2F1
100
AcDbEntity
  8
1
  6
CONTINUOUS
 62
     1
100
AcDbVertex
100
AcDb2dVertex
 10
801.654634
 20
-71.310296
 30
0.0
  0
VERTEX
  5
2F2
100
AcDbEntity
  8
1
  6
CONTINUOUS
 62
     1
100
AcDbVertex
100
AcDb2dVertex
 10
801.6542
 20
-71.3059
 30
0.0
  0
VERTEX
  5
2F3
100
AcDbEntity
  8
1
  6
CONTINUOUS
 62
     1
100
AcDbVertex
100
AcDb2dVertex
 10
800.3157
 20
-71.3059
 30
0.0
  0
SEQEND
  5
2F4
100
AcDbEntity
  8
1
  6
CONTINUOUS
 62
     1
  0
POLYLINE
  5
2F5
100
AcDbEntity
  8
1
  6
CONTINUOUS
 62
     1
100
AcDb2dPolyline
 66
     1
 10
0.0
 20
0.0
 30
0.0
  0
VERTEX
  5
2F6
100
AcDbEntity
  8
1
  6
CONTINUOUS
 62
     1
100
AcDbVertex
100
AcDb2dVertex
 10
961.2974
 20
-110.5016
 30
0.0
  0
VERTEX
  5
2F7
100
AcDbEntity
  8
1
  6
CONTINUOUS
 62
     1
100
AcDbVertex
100
AcDb2dVertex
 10
961.2974
 20
-112.0599
 30
0.0
  0
VERTEX
  5
2F8
100
AcDbEntity
  8
1
  6
CONTINUOUS
 62
     1
100
AcDbVertex
100
AcDb2dVertex
 10
959.9689
 20
-112.0599
 30
0.0
  0
VERTEX
  5
2F9
100
AcDbEntity
  8
1
  6
CONTINUOUS
 62
     1
100
AcDbVertex
100
AcDb2dVertex
 10
959.96406
 20
-112.063478
 30
0.0
 42
-0.241827
  0
VERTEX
  5
2FA
100
AcDbEntity
  8
1
  6
CONTINUOUS
 62
     1
100
AcDbVertex
100
AcDb2dVertex
 10
958.146064
 20
-111.134901
 30
0.0
  0
VERTEX
  5
2FB
100
AcDbEntity
  8
1
  6
CONTINUOUS
 62
     1
100
AcDbVertex
100
AcDb2dVertex
 10
958.1508
 20
-111.1309
 30
0.0
  0
VERTEX
  5
2FC
100
AcDbEntity
  8
1
  6
CONTINUOUS
 62
     1
100
AcDbVertex
100
AcDb2dVertex
 10
956.5926
 20
-108.9733
 30
0.0
  0
VERTEX
  5
2FD
100
AcDbEntity
  8
1
  6
CONTINUOUS
 62
     1
100
AcDbVertex
100
AcDb2dVertex
 10
956.590977
 20
-108.97568
 30
0.0
 42
0.239506
  0
VERTEX
  5
2FE
100
AcDbEntity
  8
1
  6
CONTINUOUS
 62
     1
100
AcDbVertex
100
AcDb2dVertex
 10
956.048375
 20
-108.695989
 30
0.0
  0
VERTEX
  5
2FF
100
AcDbEntity
  8
1
  6
CONTINUOUS
 62
     1
100
AcDbVertex
100
AcDb2dVertex
 10
955.9533
 20
-108.6936
 30
0.0
  0
VERTEX
  5
300
100
AcDbEntity
  8
1
  6
CONTINUOUS
 62
     1
100
AcDbVertex
100
AcDb2dVertex
 10
956.2729
 20
-109.7224
 30
0.0
  0
VERTEX
  5
301
100
AcDbEntity
  8
1
  6
CONTINUOUS
 62
     1
100
AcDbVertex
100
AcDb2dVertex
 10
956.272129
 20
-109.725254
 30
0.0
 42
-0.686095
  0
VERTEX
  5
302
100
AcDbEntity
  8
1
  6
CONTINUOUS
 62
     1
100
AcDbVertex
100
AcDb2dVertex
 10
955.757496
 20
-110.116823
 30
0.0
  0
VERTEX
  5
303
100
AcDbEntity
  8
1
  6
CONTINUOUS
 62
     1
100
AcDbVertex
100
AcDb2dVertex
 10
955.7535
 20
-110.112
 30
0.0
  0
VERTEX
  5
304
100
AcDbEntity
  8
1
  6
CONTINUOUS
 62
     1
100
AcDbVertex
100
AcDb2dVertex
 10
952.577
 20
-107.9145
 30
0.0
  0
VERTEX
  5
305
100
AcDbEntity
  8
1
  6
CONTINUOUS
 62
     1
100
AcDbVertex
100
AcDb2dVertex
 10
955.7535
 20
-105.7069
 30
0.0
  0
VERTEX
  5
306
100
AcDbEntity
  8
1
  6
CONTINUOUS
 62
     1
100
AcDbVertex
100
AcDb2dVertex
 10
955.757496
 20
-105.70888
 30
0.0
 42
-0.686315
  0
VERTEX
  5
307
100
AcDbEntity
  8
1
  6
CONTINUOUS
 62
     1
100
AcDbVertex
100
AcDb2dVertex
 10
956.272129
 20
-106.100449
 30
0.0
  0
VERTEX
  5
308
100
AcDbEntity
  8
1
  6
CONTINUOUS
 62
     1
100
AcDbVertex
100
AcDb2dVertex
 10
956.2729
 20
-106.0964
 30
0.0
  0
VERTEX
  5
309
100
AcDbEntity
  8
1
  6
CONTINUOUS
 62
     1
100
AcDbVertex
100
AcDb2dVertex
 10
955.9533
 20
-107.1253
 30
0.0
  0
VERTEX
  5
30A
100
AcDbEntity
  8
1
  6
CONTINUOUS
 62
     1
100
AcDbVertex
100
AcDb2dVertex
 10
956.042782
 20
-107.129715
 30
0.0
 42
-0.241827
  0
VERTEX
  5
30B
100
AcDbEntity
  8
1
  6
CONTINUOUS
 62
     1
100
AcDbVertex
100
AcDb2dVertex
 10
957.860778
 20
-108.058291
 30
0.0
  0
VERTEX
  5
30C
100
AcDbEntity
  8
1
  6
CONTINUOUS
 62
     1
100
AcDbVertex
100
AcDb2dVertex
 10
957.8612
 20
-108.0543
 30
0.0
  0
VERTEX
  5
30D
100
AcDbEntity
  8
1
  6
CONTINUOUS
 62
     1
100
AcDbVertex
100
AcDb2dVertex
 10
959.4194
 20
-110.2219
 30
0.0
  0
VERTEX
  5
30E
100
AcDbEntity
  8
1
  6
CONTINUOUS
 62
     1
100
AcDbVertex
100
AcDb2dVertex
 10
959.415864
 20
-110.217512
 30
0.0
 42
0.242646
  0
VERTEX
  5
30F
100
AcDbEntity
  8
1
  6
CONTINUOUS
 62
     1
100
AcDbVertex
100
AcDb2dVertex
 10
959.958466
 20
-110.497204
 30
0.0
  0
VERTEX
  5
310
100
AcDbEntity
  8
1
  6
CONTINUOUS
 62
     1
100
AcDbVertex
100
AcDb2dVertex
 10
959.9589
 20
-110.5016
 30
0.0
  0
VERTEX
  5
311
100
AcDbEntity
  8
1
  6
CONTINUOUS
 62
     1
100
AcDbVertex
100
AcDb2dVertex
 10
961.2974
 20
-110.5016
 30
0.0
  0
SEQEND
  5
312
100
AcDbEntity
  8
1
  6
CONTINUOUS
 62
     1
  0
POLYLINE
  5
313
100
AcDbEntity
  8
1
  6
CONTINUOUS
 62
     1
100
AcDb2dPolyline
 66
     1
 10
0.0
 20
0.0
 30
0.0
  0
VERTEX
  5
314
100
AcDbEntity
  8
1
  6
CONTINUOUS
 62
     1
100
AcDbVertex
100
AcDb2dVertex
 10
996.318
 20
-53.3851
 30
0.0
  0
VERTEX
  5
315
100
AcDbEntity
  8
1
  6
CONTINUOUS
 62
     1
100
AcDbVertex
100
AcDb2dVertex
 10
996.318
 20
-51.9368
 30
0.0
  0
VERTEX
  5
316
100
AcDbEntity
  8
1
  6
CONTINUOUS
 62
     1
100
AcDbVertex
100
AcDb2dVertex
 10
997.0089
 20
-51.9368
 30
0.0
  0
VERTEX
  5
317
100
AcDbEntity
  8
1
  6
CONTINUOUS
 62
     1
100
AcDbVertex
100
AcDb2dVertex
 10
997.008869
 20
-51.935543
 30
0.0
 42
-0.298603
  0
VERTEX
  5
318
100
AcDbEntity
  8
1
  6
CONTINUOUS
 62
     1
100
AcDbVertex
100
AcDb2dVertex
 10
998.698207
 20
-53.043123
 30
0.0
 42
0.700308
  0
VERTEX
  5
319
100
AcDbEntity
  8
1
  6
CONTINUOUS
 62
     1
100
AcDbVertex
100
AcDb2dVertex
 10
999.431
 20
-52.998372
 30
0.0
  0
VERTEX
  5
31A
100
AcDbEntity
  8
1
  6
CONTINUOUS
 62
     1
100
AcDbVertex
100
AcDb2dVertex
 10
999.4346
 20
-52.9956
 30
0.0
  0
VERTEX
  5
31B
100
AcDbEntity
  8
1
  6
CONTINUOUS
 62
     1
100
AcDbVertex
100
AcDb2dVertex
 10
999.7543
 20
-51.9167
 30
0.0
  0
VERTEX
  5
31C
100
AcDbEntity
  8
1
  6
CONTINUOUS
 62
     1
100
AcDbVertex
100
AcDb2dVertex
 10
999.749848
 20
-51.913168
 30
0.0
 42
-0.805227
  0
VERTEX
  5
31D
100
AcDbEntity
  8
1
  6
CONTINUOUS
 62
     1
100
AcDbVertex
100
AcDb2dVertex
 10
1003.346685
 20
-52.159297
 30
0.0
 42
0.374835
  0
VERTEX
  5
31E
100
AcDbEntity
  8
1
  6
CONTINUOUS
 62
     1
100
AcDbVertex
100
AcDb2dVertex
 10
1003.732659
 20
-52.494927
 30
0.0
  0
VERTEX
  5
31F
100
AcDbEntity
  8
1
  6
CONTINUOUS
 62
     1
100
AcDbVertex
100
AcDb2dVertex
 10
1003.7299
 20
-52.4961
 30
0.0
  0
VERTEX
  5
320
100
AcDbEntity
  8
1
  6
CONTINUOUS
 62
     1
100
AcDbVertex
100
AcDb2dVertex
 10
1003.9696
 20
-52.4961
 30
0.0
  0
VERTEX
  5
321
100
AcDbEntity
  8
1
  6
CONTINUOUS
 62
     1
100
AcDbVertex
100
AcDb2dVertex
 10
1003.6799
 20
-51.5372
 30
0.0
  0
VERTEX
  5
322
100
AcDbEntity
  8
1
  6
CONTINUOUS
 62
     1
100
AcDbVertex
100
AcDb2dVertex
 10
1003.682315
 20
-51.538381
 30
0.0
 42
-0.691256
  0
VERTEX
  5
323
100
AcDbEntity
  8
1
  6
CONTINUOUS
 62
     1
100
AcDbVertex
100
AcDb2dVertex
 10
1004.157791
 20
-51.174782
 30
0.0
  0
VERTEX
  5
324
100
AcDbEntity
  8
1
  6
CONTINUOUS
 62
     1
100
AcDbVertex
100
AcDb2dVertex
 10
1004.1594
 20
-51.1776
 30
0.0
  0
VERTEX
  5
325
100
AcDbEntity
  8
1
  6
CONTINUOUS
 62
     1
100
AcDbVertex
100
AcDb2dVertex
 10
1007.1162
 20
-53.2253
 30
0.0
  0
VERTEX
  5
326
100
AcDbEntity
  8
1
  6
CONTINUOUS
 62
     1
100
AcDbVertex
100
AcDb2dVertex
 10
1004.1594
 20
-55.2731
 30
0.0
  0
VERTEX
  5
327
100
AcDbEntity
  8
1
  6
CONTINUOUS
 62
     1
100
AcDbVertex
100
AcDb2dVertex
 10
1004.157791
 20
-55.269469
 30
0.0
 42
-0.691256
  0
VERTEX
  5
328
100
AcDbEntity
  8
1
  6
CONTINUOUS
 62
     1
100
AcDbVertex
100
AcDb2dVertex
 10
1003.682315
 20
-54.90587
 30
0.0
  0
VERTEX
  5
329
100
AcDbEntity
  8
1
  6
CONTINUOUS
 62
     1
100
AcDbVertex
100
AcDb2dVertex
 10
1003.6799
 20
-54.9035
 30
0.0
  0
VERTEX
  5
32A
100
AcDbEntity
  8
1
  6
CONTINUOUS
 62
     1
100
AcDbVertex
100
AcDb2dVertex
 10
1003.9696
 20
-53.9445
 30
0.0
  0
VERTEX
  5
32B
100
AcDbEntity
  8
1
  6
CONTINUOUS
 62
     1
100
AcDbVertex
100
AcDb2dVertex
 10
1003.738253
 20
-53.949325
 30
0.0
 42
-0.371734
  0
VERTEX
  5
32C
100
AcDbEntity
  8
1
  6
CONTINUOUS
 62
     1
100
AcDbVertex
100
AcDb2dVertex
 10
1001.909069
 20
-52.38305
 30
0.0
 42
0.805919
  0
VERTEX
  5
32D
100
AcDbEntity
  8
1
  6
CONTINUOUS
 62
     1
100
AcDbVertex
100
AcDb2dVertex
 10
1001.142714
 20
-52.327112
 30
0.0
  0
VERTEX
  5
32E
100
AcDbEntity
  8
1
  6
CONTINUOUS
 62
     1
100
AcDbVertex
100
AcDb2dVertex
 10
1001.1427
 20
-52.3263
 30
0.0
  0
VERTEX
  5
32F
100
AcDbEntity
  8
1
  6
CONTINUOUS
 62
     1
100
AcDbVertex
100
AcDb2dVertex
 10
1000.833
 20
-53.4151
 30
0.0
  0
VERTEX
  5
330
100
AcDbEntity
  8
1
  6
CONTINUOUS
 62
     1
100
AcDbVertex
100
AcDb2dVertex
 10
1000.829459
 20
-53.412316
 30
0.0
 42
-0.701436
  0
VERTEX
  5
331
100
AcDbEntity
  8
1
  6
CONTINUOUS
 62
     1
100
AcDbVertex
100
AcDb2dVertex
 10
997.366875
 20
-53.636069
 30
0.0
 42
0.298446
  0
VERTEX
  5
332
100
AcDbEntity
  8
1
  6
CONTINUOUS
 62
     1
100
AcDbVertex
100
AcDb2dVertex
 10
997.008869
 20
-53.389941
 30
0.0
  0
VERTEX
  5
333
100
AcDbEntity
  8
1
  6
CONTINUOUS
 62
     1
100
AcDbVertex
100
AcDb2dVertex
 10
997.0073
 20
-53.3851
 30
0.0
  0
VERTEX
  5
334
100
AcDbEntity
  8
1
  6
CONTINUOUS
 62
     1
100
AcDbVertex
100
AcDb2dVertex
 10
996.318
 20
-53.3851
 30
0.0
  0
SEQEND
  5
335
100
AcDbEntity
  8
1
  6
CONTINUOUS
 62
     1
  0
POLYLINE
  5
336
100
AcDbEntity
  8
1
  6
CONTINUOUS
 62
     1
100
AcDb2dPolyline
 66
     1
 10
0.0
 20
0.0
 30
0.0
  0
VERTEX
  5
337
100
AcDbEntity
  8
1
  6
CONTINUOUS
 62
     1
100
AcDbVertex
100
AcDb2dVertex
 10
1340.8046
 20
-121.5198
 30
0.0
  0
VERTEX
  5
338
100
AcDbEntity
  8
1
  6
CONTINUOUS
 62
     1
100
AcDbVertex
100
AcDb2dVertex
 10
1340.8046
 20
-122.9681
 30
0.0
  0
VERTEX
  5
339
100
AcDbEntity
  8
1
  6
CONTINUOUS
 62
     1
100
AcDbVertex
100
AcDb2dVertex
 10
1340.1137
 20
-122.9681
 30
0.0
  0
VERTEX
  5
33A
100
AcDbEntity
  8
1
  6
CONTINUOUS
 62
     1
100
AcDbVertex
100
AcDb2dVertex
 10
1340.113731
 20
-122.969357
 30
0.0
 42
-0.298603
  0
VERTEX
  5
33B
100
AcDbEntity
  8
1
  6
CONTINUOUS
 62
     1
100
AcDbVertex
100
AcDb2dVertex
 10
1338.424393
 20
-121.861777
 30
0.0
 42
0.700308
  0
VERTEX
  5
33C
100
AcDbEntity
  8
1
  6
CONTINUOUS
 62
     1
100
AcDbVertex
100
AcDb2dVertex
 10
1337.6916
 20
-121.906528
 30
0.0
  0
VERTEX
  5
33D
100
AcDbEntity
  8
1
  6
CONTINUOUS
 62
     1
100
AcDbVertex
100
AcDb2dVertex
 10
1337.688
 20
-121.9093
 30
0.0
  0
VERTEX
  5
33E
100
AcDbEntity
  8
1
  6
CONTINUOUS
 62
     1
100
AcDbVertex
100
AcDb2dVertex
 10
1337.3683
 20
-122.9882
 30
0.0
  0
VERTEX
  5
33F
100
AcDbEntity
  8
1
  6
CONTINUOUS
 62
     1
100
AcDbVertex
100
AcDb2dVertex
 10
1337.372752
 20
-122.991732
 30
0.0
 42
-0.805227
  0
VERTEX
  5
340
100
AcDbEntity
  8
1
  6
CONTINUOUS
 62
     1
100
AcDbVertex
100
AcDb2dVertex
 10
1333.775915
 20
-122.745603
 30
0.0
 42
0.374835
  0
VERTEX
  5
341
100
AcDbEntity
  8
1
  6
CONTINUOUS
 62
     1
100
AcDbVertex
100
AcDb2dVertex
 10
1333.389941
 20
-122.409973
 30
0.0
  0
VERTEX
  5
342
100
AcDbEntity
  8
1
  6
CONTINUOUS
 62
     1
100
AcDbVertex
100
AcDb2dVertex
 10
1333.3927
 20
-122.4088
 30
0.0
  0
VERTEX
  5
343
100
AcDbEntity
  8
1
  6
CONTINUOUS
 62
     1
100
AcDbVertex
100
AcDb2dVertex
 10
1333.153
 20
-122.4088
 30
0.0
  0
VERTEX
  5
344
100
AcDbEntity
  8
1
  6
CONTINUOUS
 62
     1
100
AcDbVertex
100
AcDb2dVertex
 10
1333.4427
 20
-123.3677
 30
0.0
  0
VERTEX
  5
345
100
AcDbEntity
  8
1
  6
CONTINUOUS
 62
     1
100
AcDbVertex
100
AcDb2dVertex
 10
1333.440285
 20
-123.366519
 30
0.0
 42
-0.691256
  0
VERTEX
  5
346
100
AcDbEntity
  8
1
  6
CONTINUOUS
 62
     1
100
AcDbVertex
100
AcDb2dVertex
 10
1332.964809
 20
-123.730118
 30
0.0
  0
VERTEX
  5
347
100
AcDbEntity
  8
1
  6
CONTINUOUS
 62
     1
100
AcDbVertex
100
AcDb2dVertex
 10
1332.9632
 20
-123.7273
 30
0.0
  0
VERTEX
  5
348
100
AcDbEntity
  8
1
  6
CONTINUOUS
 62
     1
100
AcDbVertex
100
AcDb2dVertex
 10
1330.0064
 20
-121.6796
 30
0.0
  0
VERTEX
  5
349
100
AcDbEntity
  8
1
  6
CONTINUOUS
 62
     1
100
AcDbVertex
100
AcDb2dVertex
 10
1332.9632
 20
-119.6318
 30
0.0
  0
VERTEX
  5
34A
100
AcDbEntity
  8
1
  6
CONTINUOUS
 62
     1
100
AcDbVertex
100
AcDb2dVertex
 10
1332.964809
 20
-119.635431
 30
0.0
 42
-0.691256
  0
VERTEX
  5
34B
100
AcDbEntity
  8
1
  6
CONTINUOUS
 62
     1
100
AcDbVertex
100
AcDb2dVertex
 10
1333.440285
 20
-119.99903
 30
0.0
  0
VERTEX
  5
34C
100
AcDbEntity
  8
1
  6
CONTINUOUS
 62
     1
100
AcDbVertex
100
AcDb2dVertex
 10
1333.4427
 20
-120.0014
 30
0.0
  0
VERTEX
  5
34D
100
AcDbEntity
  8
1
  6
CONTINUOUS
 62
     1
100
AcDbVertex
100
AcDb2dVertex
 10
1333.153
 20
-120.9604
 30
0.0
  0
VERTEX
  5
34E
100
AcDbEntity
  8
1
  6
CONTINUOUS
 62
     1
100
AcDbVertex
100
AcDb2dVertex
 10
1333.384347
 20
-120.955575
 30
0.0
 42
-0.371734
  0
VERTEX
  5
34F
100
AcDbEntity
  8
1
  6
CONTINUOUS
 62
     1
100
AcDbVertex
100
AcDb2dVertex
 10
1335.213531
 20
-122.52185
 30
0.0
 42
0.805919
  0
VERTEX
  5
350
100
AcDbEntity
  8
1
  6
CONTINUOUS
 62
     1
100
AcDbVertex
100
AcDb2dVertex
 10
1335.979886
 20
-122.577788
 30
0.0
  0
VERTEX
  5
351
100
AcDbEntity
  8
1
  6
CONTINUOUS
 62
     1
100
AcDbVertex
100
AcDb2dVertex
 10
1335.9799
 20
-122.5786
 30
0.0
  0
VERTEX
  5
352
100
AcDbEntity
  8
1
  6
CONTINUOUS
 62
     1
100
AcDbVertex
100
AcDb2dVertex
 10
1336.2896
 20
-121.4898
 30
0.0
  0
VERTEX
  5
353
100
AcDbEntity
  8
1
  6
CONTINUOUS
 62
     1
100
AcDbVertex
100
AcDb2dVertex
 10
1336.293141
 20
-121.492584
 30
0.0
 42
-0.701436
  0
VERTEX
  5
354
100
AcDbEntity
  8
1
  6
CONTINUOUS
 62
     1
100
AcDbVertex
100
AcDb2dVertex
 10
1339.755725
 20
-121.268831
 30
0.0
 42
0.298446
  0
VERTEX
  5
355
100
AcDbEntity
  8
1
  6
CONTINUOUS
 62
     1
100
AcDbVertex
100
AcDb2dVertex
 10
1340.113731
 20
-121.514959
 30
0.0
  0
VERTEX
  5
356
100
AcDbEntity
  8
1
  6
CONTINUOUS
 62
     1
100
AcDbVertex
100
AcDb2dVertex
 10
1340.1153
 20
-121.5198
 30
0.0
  0
VERTEX
  5
357
100
AcDbEntity
  8
1
  6
CONTINUOUS
 62
     1
100
AcDbVertex
100
AcDb2dVertex
 10
1340.8046
 20
-121.5198
 30
0.0
  0
SEQEND
  5
358
100
AcDbEntity
  8
1
  6
CONTINUOUS
 62
     1
  0
POLYLINE
  5
359
100
AcDbEntity
  8
1
  6
CONTINUOUS
 62
     1
100
AcDb2dPolyline
 66
     1
 10
0.0
 20
0.0
 30
0.0
  0
VERTEX
  5
35A
100
AcDbEntity
  8
1
  6
CONTINUOUS
 62
     1
100
AcDbVertex
100
AcDb2dVertex
 10
990.3535
 20
105.1934
 30
0.0
  0
VERTEX
  5
35B
100
AcDbEntity
  8
1
  6
CONTINUOUS
 62
     1
100
AcDbVertex
100
AcDb2dVertex
 10
990.5528
 20
106.6279
 30
0.0
  0
VERTEX
  5
35C
100
AcDbEntity
  8
1
  6
CONTINUOUS
 62
     1
100
AcDbVertex
100
AcDb2dVertex
 10
991.2371
 20
106.5329
 30
0.0
  0
VERTEX
  5
35D
100
AcDbEntity
  8
1
  6
CONTINUOUS
 62
     1
100
AcDbVertex
100
AcDb2dVertex
 10
991.237258
 20
106.534118
 30
0.0
 42
-0.298603
  0
VERTEX
  5
35E
100
AcDbEntity
  8
1
  6
CONTINUOUS
 62
     1
100
AcDbVertex
100
AcDb2dVertex
 10
992.758109
 20
105.204604
 30
0.0
 42
0.700308
  0
VERTEX
  5
35F
100
AcDbEntity
  8
1
  6
CONTINUOUS
 62
     1
100
AcDbVertex
100
AcDb2dVertex
 10
993.490088
 20
105.148089
 30
0.0
  0
VERTEX
  5
360
100
AcDbEntity
  8
1
  6
CONTINUOUS
 62
     1
100
AcDbVertex
100
AcDb2dVertex
 10
993.494
 20
105.1503
 30
0.0
  0
VERTEX
  5
361
100
AcDbEntity
  8
1
  6
CONTINUOUS
 62
     1
100
AcDbVertex
100
AcDb2dVertex
 10
993.9592
 20
106.175
 30
0.0
  0
VERTEX
  5
362
100
AcDbEntity
  8
1
  6
CONTINUOUS
 62
     1
100
AcDbVertex
100
AcDb2dVertex
 10
993.955239
 20
106.179092
 30
0.0
 42
-0.805227
  0
VERTEX
  5
363
100
AcDbEntity
  8
1
  6
CONTINUOUS
 62
     1
100
AcDbVertex
100
AcDb2dVertex
 10
997.483987
 20
105.440341
 30
0.0
 42
0.374835
  0
VERTEX
  5
364
100
AcDbEntity
  8
1
  6
CONTINUOUS
 62
     1
100
AcDbVertex
100
AcDb2dVertex
 10
997.820103
 20
105.05479
 30
0.0
  0
VERTEX
  5
365
100
AcDbEntity
  8
1
  6
CONTINUOUS
 62
     1
100
AcDbVertex
100
AcDb2dVertex
 10
997.8172
 20
105.054
 30
0.0
  0
VERTEX
  5
366
100
AcDbEntity
  8
1
  6
CONTINUOUS
 62
     1
100
AcDbVertex
100
AcDb2dVertex
 10
998.0546
 20
105.021
 30
0.0
  0
VERTEX
  5
367
100
AcDbEntity
  8
1
  6
CONTINUOUS
 62
     1
100
AcDbVertex
100
AcDb2dVertex
 10
997.8996
 20
106.0107
 30
0.0
  0
VERTEX
  5
368
100
AcDbEntity
  8
1
  6
CONTINUOUS
 62
     1
100
AcDbVertex
100
AcDb2dVertex
 10
997.901868
 20
106.009164
 30
0.0
 42
-0.691256
  0
VERTEX
  5
369
100
AcDbEntity
  8
1
  6
CONTINUOUS
 62
     1
100
AcDbVertex
100
AcDb2dVertex
 10
998.422856
 20
106.303873
 30
0.0
  0
VERTEX
  5
36A
100
AcDbEntity
  8
1
  6
CONTINUOUS
 62
     1
100
AcDbVertex
100
AcDb2dVertex
 10
998.4241
 20
106.3009
 30
0.0
  0
VERTEX
  5
36B
100
AcDbEntity
  8
1
  6
CONTINUOUS
 62
     1
100
AcDbVertex
100
AcDb2dVertex
 10
1001.0709
 20
103.8658
 30
0.0
  0
VERTEX
  5
36C
100
AcDbEntity
  8
1
  6
CONTINUOUS
 62
     1
100
AcDbVertex
100
AcDb2dVertex
 10
997.8605
 20
102.2443
 30
0.0
  0
VERTEX
  5
36D
100
AcDbEntity
  8
1
  6
CONTINUOUS
 62
     1
100
AcDbVertex
100
AcDb2dVertex
 10
997.859383
 20
102.248141
 30
0.0
 42
-0.691256
  0
VERTEX
  5
36E
100
AcDbEntity
  8
1
  6
CONTINUOUS
 62
     1
100
AcDbVertex
100
AcDb2dVertex
 10
997.438466
 20
102.673712
 30
0.0
  0
VERTEX
  5
36F
100
AcDbEntity
  8
1
  6
CONTINUOUS
 62
     1
100
AcDbVertex
100
AcDb2dVertex
 10
997.4364
 20
102.6764
 30
0.0
  0
VERTEX
  5
370
100
AcDbEntity
  8
1
  6
CONTINUOUS
 62
     1
100
AcDbVertex
100
AcDb2dVertex
 10
997.8553
 20
103.5864
 30
0.0
  0
VERTEX
  5
371
100
AcDbEntity
  8
1
  6
CONTINUOUS
 62
     1
100
AcDbVertex
100
AcDb2dVertex
 10
997.625503
 20
103.613459
 30
0.0
 42
-0.371734
  0
VERTEX
  5
372
100
AcDbEntity
  8
1
  6
CONTINUOUS
 62
     1
100
AcDbVertex
100
AcDb2dVertex
 10
996.029257
 20
105.416548
 30
0.0
 42
0.805919
  0
VERTEX
  5
373
100
AcDbEntity
  8
1
  6
CONTINUOUS
 62
     1
100
AcDbVertex
100
AcDb2dVertex
 10
995.27789
 20
105.577413
 30
0.0
  0
VERTEX
  5
374
100
AcDbEntity
  8
1
  6
CONTINUOUS
 62
     1
100
AcDbVertex
100
AcDb2dVertex
 10
995.278
 20
105.5782
 30
0.0
  0
VERTEX
  5
375
100
AcDbEntity
  8
1
  6
CONTINUOUS
 62
     1
100
AcDbVertex
100
AcDb2dVertex
 10
994.8214
 20
104.5424
 30
0.0
  0
VERTEX
  5
376
100
AcDbEntity
  8
1
  6
CONTINUOUS
 62
     1
100
AcDbVertex
100
AcDb2dVertex
 10
994.81828
 20
104.54564
 30
0.0
 42
-0.701436
  0
VERTEX
  5
377
100
AcDbEntity
  8
1
  6
CONTINUOUS
 62
     1
100
AcDbVertex
100
AcDb2dVertex
 10
991.357846
 20
104.800504
 30
0.0
 42
0.298446
  0
VERTEX
  5
378
100
AcDbEntity
  8
1
  6
CONTINUOUS
 62
     1
100
AcDbVertex
100
AcDb2dVertex
 10
991.037117
 20
105.093557
 30
0.0
  0
VERTEX
  5
379
100
AcDbEntity
  8
1
  6
CONTINUOUS
 62
     1
100
AcDbVertex
100
AcDb2dVertex
 10
991.0362
 20
105.0986
 30
0.0
  0
VERTEX
  5
37A
100
AcDbEntity
  8
1
  6
CONTINUOUS
 62
     1
100
AcDbVertex
100
AcDb2dVertex
 10
990.3535
 20
105.1934
 30
0.0
  0
SEQEND
  5
37B
100
AcDbEntity
  8
1
  6
CONTINUOUS
 62
     1
  0
POLYLINE
  5
37C
100
AcDbEntity
  8
1
  6
CONTINUOUS
 62
     1
100
AcDb2dPolyline
 66
     1
 10
0.0
 20
0.0
 30
0.0
  0
VERTEX
  5
37D
100
AcDbEntity
  8
1
  6
CONTINUOUS
 62
     1
100
AcDbVertex
100
AcDb2dVertex
 10
1342.1617
 20
70.4388
 30
0.0
  0
VERTEX
  5
37E
100
AcDbEntity
  8
1
  6
CONTINUOUS
 62
     1
100
AcDbVertex
100
AcDb2dVertex
 10
1341.9647
 20
69.0039
 30
0.0
  0
VERTEX
  5
37F
100
AcDbEntity
  8
1
  6
CONTINUOUS
 62
     1
100
AcDbVertex
100
AcDb2dVertex
 10
1341.2802
 20
69.0979
 30
0.0
  0
VERTEX
  5
380
100
AcDbEntity
  8
1
  6
CONTINUOUS
 62
     1
100
AcDbVertex
100
AcDb2dVertex
 10
1341.280041
 20
69.096666
 30
0.0
 42
-0.298603
  0
VERTEX
  5
381
100
AcDbEntity
  8
1
  6
CONTINUOUS
 62
     1
100
AcDbVertex
100
AcDb2dVertex
 10
1339.757077
 20
70.423759
 30
0.0
 42
0.700308
  0
VERTEX
  5
382
100
AcDbEntity
  8
1
  6
CONTINUOUS
 62
     1
100
AcDbVertex
100
AcDb2dVertex
 10
1339.025009
 20
70.47911
 30
0.0
  0
VERTEX
  5
383
100
AcDbEntity
  8
1
  6
CONTINUOUS
 62
     1
100
AcDbVertex
100
AcDb2dVertex
 10
1339.0211
 20
70.4769
 30
0.0
  0
VERTEX
  5
384
100
AcDbEntity
  8
1
  6
CONTINUOUS
 62
     1
100
AcDbVertex
100
AcDb2dVertex
 10
1338.5576
 20
69.4515
 30
0.0
  0
VERTEX
  5
385
100
AcDbEntity
  8
1
  6
CONTINUOUS
 62
     1
100
AcDbVertex
100
AcDb2dVertex
 10
1338.561499
 20
69.447369
 30
0.0
 42
-0.805227
  0
VERTEX
  5
386
100
AcDbEntity
  8
1
  6
CONTINUOUS
 62
     1
100
AcDbVertex
100
AcDb2dVertex
 10
1335.03158
 20
70.180507
 30
0.0
 42
0.374835
  0
VERTEX
  5
387
100
AcDbEntity
  8
1
  6
CONTINUOUS
 62
     1
100
AcDbVertex
100
AcDb2dVertex
 10
1334.694851
 20
70.565523
 30
0.0
  0
VERTEX
  5
388
100
AcDbEntity
  8
1
  6
CONTINUOUS
 62
     1
100
AcDbVertex
100
AcDb2dVertex
 10
1334.6977
 20
70.5663
 30
0.0
  0
VERTEX
  5
389
100
AcDbEntity
  8
1
  6
CONTINUOUS
 62
     1
100
AcDbVertex
100
AcDb2dVertex
 10
1334.4603
 20
70.5989
 30
0.0
  0
VERTEX
  5
38A
100
AcDbEntity
  8
1
  6
CONTINUOUS
 62
     1
100
AcDbVertex
100
AcDb2dVertex
 10
1334.6168
 20
69.6095
 30
0.0
  0
VERTEX
  5
38B
100
AcDbEntity
  8
1
  6
CONTINUOUS
 62
     1
100
AcDbVertex
100
AcDb2dVertex
 10
1334.614604
 20
69.611021
 30
0.0
 42
-0.691256
  0
VERTEX
  5
38C
100
AcDbEntity
  8
1
  6
CONTINUOUS
 62
     1
100
AcDbVertex
100
AcDb2dVertex
 10
1334.094085
 20
69.315483
 30
0.0
  0
VERTEX
  5
38D
100
AcDbEntity
  8
1
  6
CONTINUOUS
 62
     1
100
AcDbVertex
100
AcDb2dVertex
 10
1334.0929
 20
69.3185
 30
0.0
  0
VERTEX
  5
38E
100
AcDbEntity
  8
1
  6
CONTINUOUS
 62
     1
100
AcDbVertex
100
AcDb2dVertex
 10
1331.4421
 20
71.7494
 30
0.0
  0
VERTEX
  5
38F
100
AcDbEntity
  8
1
  6
CONTINUOUS
 62
     1
100
AcDbVertex
100
AcDb2dVertex
 10
1334.65
 20
73.3759
 30
0.0
  0
VERTEX
  5
390
100
AcDbEntity
  8
1
  6
CONTINUOUS
 62
     1
100
AcDbVertex
100
AcDb2dVertex
 10
1334.651108
 20
73.372107
 30
0.0
 42
-0.691256
  0
VERTEX
  5
391
100
AcDbEntity
  8
1
  6
CONTINUOUS
 62
     1
100
AcDbVertex
100
AcDb2dVertex
 10
1335.072701
 20
72.947206
 30
0.0
  0
VERTEX
  5
392
100
AcDbEntity
  8
1
  6
CONTINUOUS
 62
     1
100
AcDbVertex
100
AcDb2dVertex
 10
1335.0748
 20
72.9445
 30
0.0
  0
VERTEX
  5
393
100
AcDbEntity
  8
1
  6
CONTINUOUS
 62
     1
100
AcDbVertex
100
AcDb2dVertex
 10
1334.6573
 20
72.0339
 30
0.0
  0
VERTEX
  5
394
100
AcDbEntity
  8
1
  6
CONTINUOUS
 62
     1
100
AcDbVertex
100
AcDb2dVertex
 10
1334.887159
 20
72.007162
 30
0.0
 42
-0.371734
  0
VERTEX
  5
395
100
AcDbEntity
  8
1
  6
CONTINUOUS
 62
     1
100
AcDbVertex
100
AcDb2dVertex
 10
1336.48627
 20
70.206614
 30
0.0
 42
0.805919
  0
VERTEX
  5
396
100
AcDbEntity
  8
1
  6
CONTINUOUS
 62
     1
100
AcDbVertex
100
AcDb2dVertex
 10
1337.237892
 20
70.046944
 30
0.0
  0
VERTEX
  5
397
100
AcDbEntity
  8
1
  6
CONTINUOUS
 62
     1
100
AcDbVertex
100
AcDb2dVertex
 10
1337.2378
 20
70.0461
 30
0.0
  0
VERTEX
  5
398
100
AcDbEntity
  8
1
  6
CONTINUOUS
 62
     1
100
AcDbVertex
100
AcDb2dVertex
 10
1337.6927
 20
71.0827
 30
0.0
  0
VERTEX
  5
399
100
AcDbEntity
  8
1
  6
CONTINUOUS
 62
     1
100
AcDbVertex
100
AcDb2dVertex
 10
1337.69586
 20
71.079447
 30
0.0
 42
-0.701436
  0
VERTEX
  5
39A
100
AcDbEntity
  8
1
  6
CONTINUOUS
 62
     1
100
AcDbVertex
100
AcDb2dVertex
 10
1341.156695
 20
70.830086
 30
0.0
 42
0.298446
  0
VERTEX
  5
39B
100
AcDbEntity
  8
1
  6
CONTINUOUS
 62
     1
100
AcDbVertex
100
AcDb2dVertex
 10
1341.47789
 20
70.537543
 30
0.0
  0
VERTEX
  5
39C
100
AcDbEntity
  8
1
  6
CONTINUOUS
 62
     1
100
AcDbVertex
100
AcDb2dVertex
 10
1341.4788
 20
70.5325
 30
0.0
  0
VERTEX
  5
39D
100
AcDbEntity
  8
1
  6
CONTINUOUS
 62
     1
100
AcDbVertex
100
AcDb2dVertex
 10
1342.1617
 20
70.4388
 30
0.0
  0
SEQEND
  5
39E
100
AcDbEntity
  8
1
  6
CONTINUOUS
 62
     1
  0
LWPOLYLINE
  5
39F
100
AcDbEntity
  8
1
  6
CONTINUOUS
 62
     7
100
AcDbPolyline
 90
        4
 70
     0
 10
1156.0764
 20
-209.1579
 10
1153.6764
 20
-213.3148
 10
1158.4764
 20
-213.3148
 10
1156.0764
 20
-209.1579
  0
TEXT
  5
3A0
100
AcDbEntity
  8
1
  6
CONTINUOUS
 62
     7
100
AcDbText
 10
1155.4811
 20
-212.6419
 30
0.0
 40
1.8
  1
3
  7
MONOTXT
 72
     4
 11
1156.0834
 21
-211.7419
 31
0.0
210
0.0
220
0.0
230
1.0
100
AcDbText
  0
TEXT
  5
3A1
100
AcDbEntity
  8
1
  6
CONTINUOUS
 62
     7
100
AcDbText
 10
1159.8389
 20
-212.2941
 30
0.0
 40
1.8
  1
ADDED METRIC
  7
MONOTXT
 72
     4
 11
1169.668
 21
-211.3941
 31
0.0
210
0.0
220
0.0
230
1.0
100
AcDbText
  0
LWPOLYLINE
  5
3A2
100
AcDbEntity
  8
1
  6
CONTINUOUS
 62
     7
100
AcDbPolyline
 90
        4
 70
     0
 10
1159.7963
 20
-303.8534
 10
1157.3963
 20
-308.0103
 10
1162.1963
 20
-308.0103
 10
1159.7963
 20
-303.8534
  0
TEXT
  5
3A3
100
AcDbEntity
  8
1
  6
CONTINUOUS
 62
     7
100
AcDbText
 10
1159.156
 20
-307.334
 30
0.0
 40
1.8
  1
3
  7
MONOTXT
 72
     4
 11
1159.7583
 21
-306.434
 31
0.0
210
0.0
220
0.0
230
1.0
100
AcDbText
  0
TEXT
  5
3A4
100
AcDbEntity
  8
1
  6
CONTINUOUS
 62
     1
100
AcDbText
 10
1165.2124
 20
-307.5203
 30
0.0
 40
2.4
  1
05-05-94
  7
MONOTXT
 72
     1
 11
1173.9336
 21
-305.1203
 31
0.0
210
0.0
220
0.0
230
1.0
100
AcDbText
 73
     3
  0
TEXT
  5
3A5
100
AcDbEntity
  8
1
  6
CONTINUOUS
 62
     7
100
AcDbText
 10
590.7978
 20
-181.328
 30
0.0
 40
2.4
  1
1.    STANDARD DRAWING C-2A AND C-2B
  7
MONOTXT
 11
590.7978
 21
-178.928
 31
0.0
210
0.0
220
0.0
230
1.0
100
AcDbText
 73
     3
  0
TEXT
  5
3A6
100
AcDbEntity
  8
1
  6
CONTINUOUS
 62
     7
100
AcDbText
 10
590.7978
 20
-184.928
 30
0.0
 40
2.4
  1
 
  7
MONOTXT
 11
590.7978
 21
-182.528
 31
0.0
210
0.0
220
0.0
230
1.0
100
AcDbText
 73
     3
  0
TEXT
  5
3A7
100
AcDbEntity
  8
1
  6
CONTINUOUS
 62
     7
100
AcDbText
 10
590.7978
 20
-188.528
 30
0.0
 40
2.4
  1
   1.1    THIS STANDARD IS TO BE USED FOR ADVISORY CURVE SPEEDS OF 50km/hr (30 MPH) OR
  7
MONOTXT
 11
590.7978
 21
-186.128
 31
0.0
210
0.0
220
0.0
230
1.0
100
AcDbText
 73
     3
  0
TEXT
  5
3A8
100
AcDbEntity
  8
1
  6
CONTINUOUS
 62
     7
100
AcDbText
 10
590.7978
 20
-192.128
 30
0.0
 40
2.4
  1
       LESS, UNLESS SPECIFICALLY NOTED OTHERWISE IN THE SIGN PLANS.
  7
MONOTXT
 11
590.7978
 21
-189.728
 31
0.0
210
0.0
220
0.0
230
1.0
100
AcDbText
 73
     3
  0
TEXT
  5
3A9
100
AcDbEntity
  8
1
  6
CONTINUOUS
 62
     7
100
AcDbText
 10
590.7978
 20
-195.728
 30
0.0
 40
2.4
  1
 
  7
MONOTXT
 11
590.7978
 21
-193.328
 31
0.0
210
0.0
220
0.0
230
1.0
100
AcDbText
 73
     3
  0
TEXT
  5
3AA
100
AcDbEntity
  8
1
  6
CONTINUOUS
 62
     7
100
AcDbText
 10
590.7978
 20
-199.328
 30
0.0
 40
2.4
  1
   1.2  THE SIGNS SHALL BE A STANDARD SIZE W1-1 OR W1-3, W1-6 AND W13-1, UNLESS SPECIFICALLY
  7
MONOTXT
 11
590.7978
 21
-196.928
 31
0.0
210
0.0
220
0.0
230
1.0
100
AcDbText
 73
     3
  0
TEXT
  5
3AB
100
AcDbEntity
  8
1
  6
CONTINUOUS
 62
     7
100
AcDbText
 10
590.7978
 20
-202.928
 30
0.0
 40
2.4
  1
       NOTED OTHERWISE IN THE SIGN PLANS.
  7
MONOTXT
 11
590.7978
 21
-200.528
 31
0.0
210
0.0
220
0.0
230
1.0
100
AcDbText
 73
     3
  0
TEXT
  5
3AC
100
AcDbEntity
  8
1
  6
CONTINUOUS
 62
     7
100
AcDbText
 10
590.7978
 20
-206.528
 30
0.0
 40
2.4
  1
 
  7
MONOTXT
 11
590.7978
 21
-204.128
 31
0.0
210
0.0
220
0.0
230
1.0
100
AcDbText
 73
     3
  0
TEXT
  5
3AD
100
AcDbEntity
  8
1
  6
CONTINUOUS
 62
     7
100
AcDbText
 10
590.7978
 20
-210.128
 30
0.0
 40
2.4
  1
   1.3  THE STANDARD W1-6 SIGNS SHALL BE ERECTED ON THE OUTSIDE OF A TURN IN LINE WITH, AND
  7
MONOTXT
 11
590.7978
 21
-207.728
 31
0.0
210
0.0
220
0.0
230
1.0
100
AcDbText
 73
     3
  0
TEXT
  5
3AE
100
AcDbEntity
  8
1
  6
CONTINUOUS
 62
     7
100
AcDbText
 10
590.7978
 20
-213.728
 30
0.0
 40
2.4
  1
       AT RIGHT ANGLES TO, APPROACHING TRAFFIC. NO EXACT SPECIFICATIONS CAN BE GIVEN FOR THE
  7
MONOTXT
 11
590.7978
 21
-211.328
 31
0.0
210
0.0
220
0.0
230
1.0
100
AcDbText
 73
     3
  0
TEXT
  5
3AF
100
AcDbEntity
  8
1
  6
CONTINUOUS
 62
     7
100
AcDbText
 10
590.7978
 20
-217.328
 30
0.0
 40
2.4
  1
       PLACEMENT OF THE WI-6. ITS LOCATION IS TO BE DETERMINED AT THE TIME THE SIGNS ARE TO
  7
MONOTXT
 11
590.7978
 21
-214.928
 31
0.0
210
0.0
220
0.0
230
1.0
100
AcDbText
 73
     3
  0
TEXT
  5
3B0
100
AcDbEntity
  8
1
  6
CONTINUOUS
 62
     7
100
AcDbText
 10
590.7978
 20
-220.928
 30
0.0
 40
2.4
  1
       BE ERECTED.
  7
MONOTXT
 11
590.7978
 21
-218.528
 31
0.0
210
0.0
220
0.0
230
1.0
100
AcDbText
 73
     3
  0
TEXT
  5
3B1
100
AcDbEntity
  8
1
  6
CONTINUOUS
 62
     7
100
AcDbText
 10
590.7978
 20
-224.528
 30
0.0
 40
2.4
  1
 
  7
MONOTXT
 11
590.7978
 21
-222.128
 31
0.0
210
0.0
220
0.0
230
1.0
100
AcDbText
 73
     3
  0
TEXT
  5
3B2
100
AcDbEntity
  8
1
  6
CONTINUOUS
 62
     7
100
AcDbText
 10
590.7978
 20
-228.128
 30
0.0
 40
2.4
  1
2.   STANDARD DRAWING C-3A AND C-3B
  7
MONOTXT
 11
590.7978
 21
-225.728
 31
0.0
210
0.0
220
0.0
230
1.0
100
AcDbText
 73
     3
  0
TEXT
  5
3B3
100
AcDbEntity
  8
1
  6
CONTINUOUS
 62
     7
100
AcDbText
 10
590.7978
 20
-231.728
 30
0.0
 40
2.4
  1
 
  7
MONOTXT
 11
590.7978
 21
-229.328
 31
0.0
210
0.0
220
0.0
230
1.0
100
AcDbText
 73
     3
  0
TEXT
  5
3B4
100
AcDbEntity
  8
1
  6
CONTINUOUS
 62
     7
100
AcDbText
 10
590.7978
 20
-235.328
 30
0.0
 40
2.4
  1
   2.1   THIS STANDARD IS TO BE USED FOR ADVISORY CURVE SPEEDS OF 55km/hr (35 MPH) OR MORE,
  7
MONOTXT
 11
590.7978
 21
-232.928
 31
0.0
210
0.0
220
0.0
230
1.0
100
AcDbText
 73
     3
  0
TEXT
  5
3B5
100
AcDbEntity
  8
1
  6
CONTINUOUS
 62
     7
100
AcDbText
 10
590.7978
 20
-238.928
 30
0.0
 40
2.4
  1
       UNLESS SPECIFICALLY NOTED OTHERWISE IN THE SIGN PLANS.
  7
MONOTXT
 11
590.7978
 21
-236.528
 31
0.0
210
0.0
220
0.0
230
1.0
100
AcDbText
 73
     3
  0
TEXT
  5
3B6
100
AcDbEntity
  8
1
  6
CONTINUOUS
 62
     7
100
AcDbText
 10
590.7978
 20
-242.528
 30
0.0
 40
2.4
  1
 
  7
MONOTXT
 11
590.7978
 21
-240.128
 31
0.0
210
0.0
220
0.0
230
1.0
100
AcDbText
 73
     3
  0
TEXT
  5
3B7
100
AcDbEntity
  8
1
  6
CONTINUOUS
 62
     7
100
AcDbText
 10
590.7978
 20
-246.128
 30
0.0
 40
2.4
  1
   2.2 THE SIGNS SHALL BE A STANDARD SIZE W1-2 OR W1-4 AND W13-1, UNLESS SPECIFICALLY NOTED
  7
MONOTXT
 11
590.7978
 21
-243.728
 31
0.0
210
0.0
220
0.0
230
1.0
100
AcDbText
 73
     3
  0
TEXT
  5
3B8
100
AcDbEntity
  8
1
  6
CONTINUOUS
 62
     7
100
AcDbText
 10
590.7978
 20
-249.728
 30
0.0
 40
2.4
  1
       OTHERWISE IN THE SIGN PLANS.
  7
MONOTXT
 11
590.7978
 21
-247.328
 31
0.0
210
0.0
220
0.0
230
1.0
100
AcDbText
 73
     3
  0
TEXT
  5
3B9
100
AcDbEntity
  8
1
  6
CONTINUOUS
 62
     7
100
AcDbText
 10
590.7978
 20
-253.328
 30
0.0
 40
2.4
  1
 
  7
MONOTXT
 11
590.7978
 21
-250.928
 31
0.0
210
0.0
220
0.0
230
1.0
100
AcDbText
 73
     3
  0
TEXT
  5
3BA
100
AcDbEntity
  8
1
  6
CONTINUOUS
 62
     7
100
AcDbText
 10
590.7978
 20
-256.928
 30
0.0
 40
2.4
  1
3.   STANDARD DRAWING C-4
  7
MONOTXT
 11
590.7978
 21
-254.528
 31
0.0
210
0.0
220
0.0
230
1.0
100
AcDbText
 73
     3
  0
TEXT
  5
3BB
100
AcDbEntity
  8
1
  6
CONTINUOUS
 62
     7
100
AcDbText
 10
590.7978
 20
-260.528
 30
0.0
 40
2.4
  1
 
  7
MONOTXT
 11
590.7978
 21
-258.128
 31
0.0
210
0.0
220
0.0
230
1.0
100
AcDbText
 73
     3
  0
TEXT
  5
3BC
100
AcDbEntity
  8
1
  6
CONTINUOUS
 62
     7
100
AcDbText
 10
590.7978
 20
-264.128
 30
0.0
 40
2.4
  1
   3.1   THIS STANDARD IS USED FOR A SERIES OF CURVES, 55km/hr (35 MPH) OR MORE, UNLESS SPECIFI-
  7
MONOTXT
 11
590.7978
 21
-261.728
 31
0.0
210
0.0
220
0.0
230
1.0
100
AcDbText
 73
     3
  0
TEXT
  5
3BD
100
AcDbEntity
  8
1
  6
CONTINUOUS
 62
     7
100
AcDbText
 10
590.7978
 20
-267.728
 30
0.0
 40
2.4
  1
       CALLY NOTED OTHERWISE IN THE SIGN PLANS.
  7
MONOTXT
 11
590.7978
 21
-265.328
 31
0.0
210
0.0
220
0.0
230
1.0
100
AcDbText
 73
     3
  0
TEXT
  5
3BE
100
AcDbEntity
  8
1
  6
CONTINUOUS
 62
     7
100
AcDbText
 10
590.7978
 20
-271.328
 30
0.0
 40
2.4
  1
 
  7
MONOTXT
 11
590.7978
 21
-268.928
 31
0.0
210
0.0
220
0.0
230
1.0
100
AcDbText
 73
     3
  0
TEXT
  5
3BF
100
AcDbEntity
  8
1
  6
CONTINUOUS
 62
     7
100
AcDbText
 10
590.7978
 20
-274.928
 30
0.0
 40
2.4
  1
   3.2 THE SIGNS SHALL BE A STANDARD SIZE W1-2, W1-5 AND W13-1, UNLESS SPECIFICALLY NOTED
  7
MONOTXT
 11
590.7978
 21
-272.528
 31
0.0
210
0.0
220
0.0
230
1.0
100
AcDbText
 73
     3
  0
TEXT
  5
3C0
100
AcDbEntity
  8
1
  6
CONTINUOUS
 62
     7
100
AcDbText
 10
590.7978
 20
-278.528
 30
0.0
 40
2.4
  1
       OTHERWISE IN THE SIGN PLANS.
  7
MONOTXT
 11
590.7978
 21
-276.128
 31
0.0
210
0.0
220
0.0
230
1.0
100
AcDbText
 73
     3
  0
TEXT
  5
3C1
100
AcDbEntity
  8
1
  6
CONTINUOUS
 62
     7
100
AcDbText
 10
590.7978
 20
-282.128
 30
0.0
 40
2.4
  1
 
  7
MONOTXT
 11
590.7978
 21
-279.728
 31
0.0
210
0.0
220
0.0
230
1.0
100
AcDbText
 73
     3
  0
TEXT
  5
3C2
100
AcDbEntity
  8
1
  6
CONTINUOUS
 62
     7
100
AcDbText
 10
590.7978
 20
-285.728
 30
0.0
 40
2.4
  1
4.   STANDARD DRAWING C-5
  7
MONOTXT
 11
590.7978
 21
-283.328
 31
0.0
210
0.0
220
0.0
230
1.0
100
AcDbText
 73
     3
  0
TEXT
  5
3C3
100
AcDbEntity
  8
1
  6
CONTINUOUS
 62
     7
100
AcDbText
 10
590.7978
 20
-289.328
 30
0.0
 40
2.4
  1
 
  7
MONOTXT
 11
590.7978
 21
-286.928
 31
0.0
210
0.0
220
0.0
230
1.0
100
AcDbText
 73
     3
  0
TEXT
  5
3C4
100
AcDbEntity
  8
1
  6
CONTINUOUS
 62
     7
100
AcDbText
 10
590.7978
 20
-292.928
 30
0.0
 40
2.4
  1
   4.1   THIS STANDARD IS USED FOR A SERIES OF CURVES, 50km/hr (30 MPH) OR LESS, UNLESS SPECIFI-
  7
MONOTXT
 11
590.7978
 21
-290.528
 31
0.0
210
0.0
220
0.0
230
1.0
100
AcDbText
 73
     3
  0
TEXT
  5
3C5
100
AcDbEntity
  8
1
  6
CONTINUOUS
 62
     7
100
AcDbText
 10
590.7978
 20
-296.528
 30
0.0
 40
2.4
  1
       CALLY NOTED OTHERWISE IN THE SIGN PLANS.
  7
MONOTXT
 11
590.7978
 21
-294.128
 31
0.0
210
0.0
220
0.0
230
1.0
100
AcDbText
 73
     3
  0
TEXT
  5
3C6
100
AcDbEntity
  8
1
  6
CONTINUOUS
 62
     7
100
AcDbText
 10
590.7978
 20
-300.128
 30
0.0
 40
2.4
  1
 
  7
MONOTXT
 11
590.7978
 21
-297.728
 31
0.0
210
0.0
220
0.0
230
1.0
100
AcDbText
 73
     3
  0
TEXT
  5
3C7
100
AcDbEntity
  8
1
  6
CONTINUOUS
 62
     7
100
AcDbText
 10
590.7978
 20
-303.728
 30
0.0
 40
2.4
  1
   4.2 THE SIGNS SHALL BE A STANDARD SIZE W1-1 OR W1-5, AND W1-6 AND W13-1, UNLESS SPECIFICAL-
  7
MONOTXT
 11
590.7978
 21
-301.328
 31
0.0
210
0.0
220
0.0
230
1.0
100
AcDbText
 73
     3
  0
TEXT
  5
3C8
100
AcDbEntity
  8
1
  6
CONTINUOUS
 62
     7
100
AcDbText
 10
590.7978
 20
-307.328
 30
0.0
 40
2.4
  1
       LY NOTED OTHERWISE IN THE SIGN PLANS.
  7
MONOTXT
 11
590.7978
 21
-304.928
 31
0.0
210
0.0
220
0.0
230
1.0
100
AcDbText
 73
     3
  0
TEXT
  5
3C9
100
AcDbEntity
  8
1
  6
CONTINUOUS
 62
     7
100
AcDbText
 10
590.7978
 20
-310.928
 30
0.0
 40
2.4
  1
 
  7
MONOTXT
 11
590.7978
 21
-308.528
 31
0.0
210
0.0
220
0.0
230
1.0
100
AcDbText
 73
     3
  0
TEXT
  5
3CA
100
AcDbEntity
  8
1
  6
CONTINUOUS
 62
     7
100
AcDbText
 10
590.7978
 20
-314.528
 30
0.0
 40
2.4
  1
   4.3 THE STANDARD W1-6 SIGNS SHOULD BE ERECTED ON THE OUTSIDE OF A TURN, IN LINE WITH, AND
  7
MONOTXT
 11
590.7978
 21
-312.128
 31
0.0
210
0.0
220
0.0
230
1.0
100
AcDbText
 73
     3
  0
TEXT
  5
3CB
100
AcDbEntity
  8
1
  6
CONTINUOUS
 62
     7
100
AcDbText
 10
590.7978
 20
-318.128
 30
0.0
 40
2.4
  1
       AT RIGHT ANGLES TO, APPROACHING TRAFFIC. NO EXACT SPECIFICATIONS CAN BE GIVEN FOR THE
  7
MONOTXT
 11
590.7978
 21
-315.728
 31
0.0
210
0.0
220
0.0
230
1.0
100
AcDbText
 73
     3
  0
TEXT
  5
3CC
100
AcDbEntity
  8
1
  6
CONTINUOUS
 62
     7
100
AcDbText
 10
590.7978
 20
-321.728
 30
0.0
 40
2.4
  1
       PLACEMENT OF THE W1-6. ITS LOCATION IS TO BE DETERMINED AT THE TIME THE SIGNS ARE TO
  7
MONOTXT
 11
590.7978
 21
-319.328
 31
0.0
210
0.0
220
0.0
230
1.0
100
AcDbText
 73
     3
  0
TEXT
  5
3CD
100
AcDbEntity
  8
1
  6
CONTINUOUS
 62
     7
100
AcDbText
 10
590.7978
 20
-325.328
 30
0.0
 40
2.4
  1
       BE ERECTED.
  7
MONOTXT
 11
590.7978
 21
-322.928
 31
0.0
210
0.0
220
0.0
230
1.0
100
AcDbText
 73
     3
  0
TEXT
  5
3CE
100
AcDbEntity
  8
1
  6
CONTINUOUS
 62
     7
100
AcDbText
 10
830.2196
 20
-192.9514
 30
0.0
 40
3.0
  1
SPEED
  7
MONOTXT
 72
     4
 11
837.0345
 21
-191.4514
 31
0.0
210
0.0
220
0.0
230
1.0
100
AcDbText
  0
TEXT
  5
3CF
100
AcDbEntity
  8
1
  6
CONTINUOUS
 62
     7
100
AcDbText
 10
832.0621
 20
-198.3514
 30
0.0
 40
3.0
  1
LIMIT
  7
MONOTXT
 72
     4
 11
837.0345
 21
-196.8514
 31
0.0
210
0.0
220
0.0
230
1.0
100
AcDbText
  0
TEXT
  5
3D0
100
AcDbEntity
  8
1
  6
CONTINUOUS
 62
     7
100
AcDbText
 10
828.6841
 20
-203.7514
 30
0.0
 40
3.0
  1
(km/hr)
  7
MONOTXT
 72
     4
 11
837.0345
 21
-202.2514
 31
0.0
210
0.0
220
0.0
230
1.0
100
AcDbText
  0
TEXT
  5
3D1
100
AcDbEntity
  8
1
  6
CONTINUOUS
 62
     7
100
AcDbText
 10
921.0237
 20
-186.8759
 30
0.0
 40
3.0
  1
DESIRABLE DISTANCE
  7
MONOTXT
 11
921.0237
 21
-183.8759
 31
0.0
210
0.0
220
0.0
230
1.0
100
AcDbText
 73
     3
  0
TEXT
  5
3D2
100
AcDbEntity
  8
1
  6
CONTINUOUS
 62
     7
100
AcDbText
 10
921.0237
 20
-192.2759
 30
0.0
 40
3.0
  1
FROM START OF
  7
MONOTXT
 11
921.0237
 21
-189.2759
 31
0.0
210
0.0
220
0.0
230
1.0
100
AcDbText
 73
     3
  0
TEXT
  5
3D3
100
AcDbEntity
  8
1
  6
CONTINUOUS
 62
     7
100
AcDbText
 10
921.0237
 20
-197.6759
 30
0.0
 40
3.0
  1
CURVE TO ADVISORY
  7
MONOTXT
 11
921.0237
 21
-194.6759
 31
0.0
210
0.0
220
0.0
230
1.0
100
AcDbText
 73
     3
  0
TEXT
  5
3D4
100
AcDbEntity
  8
1
  6
CONTINUOUS
 62
     7
100
AcDbText
 10
921.0237
 20
-203.0759
 30
0.0
 40
3.0
  1
CURVE SIGN
  7
MONOTXT
 11
921.0237
 21
-200.0759
 31
0.0
210
0.0
220
0.0
230
1.0
100
AcDbText
 73
     3
  0
TEXT
  5
3D5
100
AcDbEntity
  8
1
  6
CONTINUOUS
 62
     7
100
AcDbText
 10
921.0237
 20
-208.4759
 30
0.0
 40
3.0
  1
(METERS)
  7
MONOTXT
 11
921.0237
 21
-205.4759
 31
0.0
210
0.0
220
0.0
230
1.0
100
AcDbText
 73
     3
  0
TEXT
  5
3D6
100
AcDbEntity
  8
1
  6
CONTINUOUS
 62
     7
100
AcDbText
 10
998.1979
 20
-192.3026
 30
0.0
 40
3.0
  1
SPEED
  7
MONOTXT
 72
     4
 11
1005.0128
 21
-190.8026
 31
0.0
210
0.0
220
0.0
230
1.0
100
AcDbText
  0
TEXT
  5
3D7
100
AcDbEntity
  8
1
  6
CONTINUOUS
 62
     7
100
AcDbText
 10
1000.0404
 20
-197.7026
 30
0.0
 40
3.0
  1
LIMIT
  7
MONOTXT
 72
     4
 11
1005.0128
 21
-196.2026
 31
0.0
210
0.0
220
0.0
230
1.0
100
AcDbText
  0
TEXT
  5
3D8
100
AcDbEntity
  8
1
  6
CONTINUOUS
 62
     7
100
AcDbText
 10
997.6073
 20
-203.1026
 30
0.0
 40
3.0
  1
km/hr)
  7
MONOTXT
 72
     4
 11
1005.0128
 21
-201.6026
 31
0.0
210
0.0
220
0.0
230
1.0
100
AcDbText
  0
TEXT
  5
3D9
100
AcDbEntity
  8
1
  6
CONTINUOUS
 62
     7
100
AcDbText
 10
1089.002
 20
-186.5515
 30
0.0
 40
3.0
  1
DESIRABLE DISTANCE
  7
MONOTXT
 11
1089.002
 21
-183.5515
 31
0.0
210
0.0
220
0.0
230
1.0
100
AcDbText
 73
     3
  0
TEXT
  5
3DA
100
AcDbEntity
  8
1
  6
CONTINUOUS
 62
     7
100
AcDbText
 10
1089.002
 20
-191.9515
 30
0.0
 40
3.0
  1
FROM START OF
  7
MONOTXT
 11
1089.002
 21
-188.9515
 31
0.0
210
0.0
220
0.0
230
1.0
100
AcDbText
 73
     3
  0
TEXT
  5
3DB
100
AcDbEntity
  8
1
  6
CONTINUOUS
 62
     7
100
AcDbText
 10
1089.002
 20
-197.3515
 30
0.0
 40
3.0
  1
CURVE TO ADVISORY
  7
MONOTXT
 11
1089.002
 21
-194.3515
 31
0.0
210
0.0
220
0.0
230
1.0
100
AcDbText
 73
     3
  0
TEXT
  5
3DC
100
AcDbEntity
  8
1
  6
CONTINUOUS
 62
     7
100
AcDbText
 10
1089.002
 20
-202.7515
 30
0.0
 40
3.0
  1
CURVE SIGN
  7
MONOTXT
 11
1089.002
 21
-199.7515
 31
0.0
210
0.0
220
0.0
230
1.0
100
AcDbText
 73
     3
  0
TEXT
  5
3DD
100
AcDbEntity
  8
1
  6
CONTINUOUS
 62
     7
100
AcDbText
 10
1089.002
 20
-208.1515
 30
0.0
 40
3.0
  1
(METERS)
  7
MONOTXT
 11
1089.002
 21
-205.1515
 31
0.0
210
0.0
220
0.0
230
1.0
100
AcDbText
 73
     3
  0
TEXT
  5
3DE
100
AcDbEntity
  8
1
  6
CONTINUOUS
 62
     7
100
AcDbText
 10
828.0172
 20
-218.0134
 30
0.0
 40
2.7
  1
40km/hr
  7
MONOTXT
 72
     4
 11
836.6274
 21
-216.6634
 31
0.0
210
0.0
220
0.0
230
1.0
100
AcDbText
  0
TEXT
  5
3DF
100
AcDbEntity
  8
1
  6
CONTINUOUS
 62
     7
100
AcDbText
 10
835.7239
 20
-221.9134
 30
0.0
 40
2.7
  1
 
  7
MONOTXT
 72
     4
 11
836.6239
 21
-220.5634
 31
0.0
210
0.0
220
0.0
230
1.0
100
AcDbText
  0
TEXT
  5
3E0
100
AcDbEntity
  8
1
  6
CONTINUOUS
 62
     7
100
AcDbText
 10
835.7239
 20
-225.8134
 30
0.0
 40
2.7
  1
 
  7
MONOTXT
 72
     4
 11
836.6239
 21
-224.4634
 31
0.0
210
0.0
220
0.0
230
1.0
100
AcDbText
  0
TEXT
  5
3E1
100
AcDbEntity
  8
1
  6
CONTINUOUS
 62
     7
100
AcDbText
 10
835.7239
 20
-229.7134
 30
0.0
 40
2.7
  1
 
  7
MONOTXT
 72
     4
 11
836.6239
 21
-228.3634
 31
0.0
210
0.0
220
0.0
230
1.0
100
AcDbText
  0
TEXT
  5
3E2
100
AcDbEntity
  8
1
  6
CONTINUOUS
 62
     7
100
AcDbText
 10
828.081
 20
-233.6134
 30
0.0
 40
2.7
  1
50km/hr
  7
MONOTXT
 72
     4
 11
836.6274
 21
-232.2634
 31
0.0
210
0.0
220
0.0
230
1.0
100
AcDbText
  0
TEXT
  5
3E3
100
AcDbEntity
  8
1
  6
CONTINUOUS
 62
     7
100
AcDbText
 10
835.7239
 20
-237.5134
 30
0.0
 40
2.7
  1
 
  7
MONOTXT
 72
     4
 11
836.6239
 21
-236.1634
 31
0.0
210
0.0
220
0.0
230
1.0
100
AcDbText
  0
TEXT
  5
3E4
100
AcDbEntity
  8
1
  6
CONTINUOUS
 62
     7
100
AcDbText
 10
835.7239
 20
-241.4134
 30
0.0
 40
2.7
  1
 
  7
MONOTXT
 72
     4
 11
836.6239
 21
-240.0634
 31
0.0
210
0.0
220
0.0
230
1.0
100
AcDbText
  0
TEXT
  5
3E5
100
AcDbEntity
  8
1
  6
CONTINUOUS
 62
     7
100
AcDbText
 10
835.7239
 20
-245.3134
 30
0.0
 40
2.7
  1
 
  7
MONOTXT
 72
     4
 11
836.6239
 21
-243.9634
 31
0.0
210
0.0
220
0.0
230
1.0
100
AcDbText
  0
TEXT
  5
3E6
100
AcDbEntity
  8
1
  6
CONTINUOUS
 62
     7
100
AcDbText
 10
835.7239
 20
-249.2134
 30
0.0
 40
2.7
  1
 
  7
MONOTXT
 72
     4
 11
836.6239
 21
-247.8634
 31
0.0
210
0.0
220
0.0
230
1.0
100
AcDbText
  0
TEXT
  5
3E7
100
AcDbEntity
  8
1
  6
CONTINUOUS
 62
     7
100
AcDbText
 10
828.081
 20
-253.1134
 30
0.0
 40
2.7
  1
55km/hr
  7
MONOTXT
 72
     4
 11
836.6274
 21
-251.7634
 31
0.0
210
0.0
220
0.0
230
1.0
100
AcDbText
  0
TEXT
  5
3E8
100
AcDbEntity
  8
1
  6
CONTINUOUS
 62
     7
100
AcDbText
 10
835.7239
 20
-257.0134
 30
0.0
 40
2.7
  1
 
  7
MONOTXT
 72
     4
 11
836.6239
 21
-255.6634
 31
0.0
210
0.0
220
0.0
230
1.0
100
AcDbText
  0
TEXT
  5
3E9
100
AcDbEntity
  8
1
  6
CONTINUOUS
 62
     7
100
AcDbText
 10
835.7239
 20
-260.9134
 30
0.0
 40
2.7
  1
 
  7
MONOTXT
 72
     4
 11
836.6239
 21
-259.5634
 31
0.0
210
0.0
220
0.0
230
1.0
100
AcDbText
  0
TEXT
  5
3EA
100
AcDbEntity
  8
1
  6
CONTINUOUS
 62
     7
100
AcDbText
 10
835.7239
 20
-264.8134
 30
0.0
 40
2.7
  1
 
  7
MONOTXT
 72
     4
 11
836.6239
 21
-263.4634
 31
0.0
210
0.0
220
0.0
230
1.0
100
AcDbText
  0
TEXT
  5
3EB
100
AcDbEntity
  8
1
  6
CONTINUOUS
 62
     7
100
AcDbText
 10
835.7239
 20
-268.7134
 30
0.0
 40
2.7
  1
 
  7
MONOTXT
 72
     4
 11
836.6239
 21
-267.3634
 31
0.0
210
0.0
220
0.0
230
1.0
100
AcDbText
  0
TEXT
  5
3EC
100
AcDbEntity
  8
1
  6
CONTINUOUS
 62
     7
100
AcDbText
 10
835.7239
 20
-272.6134
 30
0.0
 40
2.7
  1
 
  7
MONOTXT
 72
     4
 11
836.6239
 21
-271.2634
 31
0.0
210
0.0
220
0.0
230
1.0
100
AcDbText
  0
TEXT
  5
3ED
100
AcDbEntity
  8
1
  6
CONTINUOUS
 62
     7
100
AcDbText
 10
828.1448
 20
-276.5134
 30
0.0
 40
2.7
  1
60km/hr
  7
MONOTXT
 72
     4
 11
836.6274
 21
-275.1634
 31
0.0
210
0.0
220
0.0
230
1.0
100
AcDbText
  0
TEXT
  5
3EE
100
AcDbEntity
  8
1
  6
CONTINUOUS
 62
     7
100
AcDbText
 10
995.7144
 20
-217.9836
 30
0.0
 40
2.7
  1
70km/hr
  7
MONOTXT
 72
     4
 11
1004.282
 21
-216.6336
 31
0.0
210
0.0
220
0.0
230
1.0
100
AcDbText
  0
TEXT
  5
3EF
100
AcDbEntity
  8
1
  6
CONTINUOUS
 62
     7
100
AcDbText
 10
1003.3785
 20
-221.8836
 30
0.0
 40
2.7
  1
 
  7
MONOTXT
 72
     4
 11
1004.2785
 21
-220.5336
 31
0.0
210
0.0
220
0.0
230
1.0
100
AcDbText
  0
TEXT
  5
3F0
100
AcDbEntity
  8
1
  6
CONTINUOUS
 62
     7
100
AcDbText
 10
1003.3785
 20
-225.7836
 30
0.0
 40
2.7
  1
 
  7
MONOTXT
 72
     4
 11
1004.2785
 21
-224.4336
 31
0.0
210
0.0
220
0.0
230
1.0
100
AcDbText
  0
TEXT
  5
3F1
100
AcDbEntity
  8
1
  6
CONTINUOUS
 62
     7
100
AcDbText
 10
1003.3785
 20
-229.6836
 30
0.0
 40
2.7
  1
 
  7
MONOTXT
 72
     4
 11
1004.2785
 21
-228.3336
 31
0.0
210
0.0
220
0.0
230
1.0
100
AcDbText
  0
TEXT
  5
3F2
100
AcDbEntity
  8
1
  6
CONTINUOUS
 62
     7
100
AcDbText
 10
1003.3785
 20
-233.5836
 30
0.0
 40
2.7
  1
 
  7
MONOTXT
 72
     4
 11
1004.2785
 21
-232.2336
 31
0.0
210
0.0
220
0.0
230
1.0
100
AcDbText
  0
TEXT
  5
3F3
100
AcDbEntity
  8
1
  6
CONTINUOUS
 62
     7
100
AcDbText
 10
1003.3785
 20
-237.4836
 30
0.0
 40
2.7
  1
 
  7
MONOTXT
 72
     4
 11
1004.2785
 21
-236.1336
 31
0.0
210
0.0
220
0.0
230
1.0
100
AcDbText
  0
TEXT
  5
3F4
100
AcDbEntity
  8
1
  6
CONTINUOUS
 62
     7
100
AcDbText
 10
1003.3785
 20
-241.3836
 30
0.0
 40
2.7
  1
 
  7
MONOTXT
 72
     4
 11
1004.2785
 21
-240.0336
 31
0.0
210
0.0
220
0.0
230
1.0
100
AcDbText
  0
TEXT
  5
3F5
100
AcDbEntity
  8
1
  6
CONTINUOUS
 62
     7
100
AcDbText
 10
1003.3785
 20
-245.2836
 30
0.0
 40
2.7
  1
 
  7
MONOTXT
 72
     4
 11
1004.2785
 21
-243.9336
 31
0.0
210
0.0
220
0.0
230
1.0
100
AcDbText
  0
TEXT
  5
3F6
100
AcDbEntity
  8
1
  6
CONTINUOUS
 62
     7
100
AcDbText
 10
995.7356
 20
-249.1836
 30
0.0
 40
2.7
  1
80km/hr
  7
MONOTXT
 72
     4
 11
1004.282
 21
-247.8336
 31
0.0
210
0.0
220
0.0
230
1.0
100
AcDbText
  0
TEXT
  5
3F7
100
AcDbEntity
  8
1
  6
CONTINUOUS
 62
     7
100
AcDbText
 10
1003.3785
 20
-253.0836
 30
0.0
 40
2.7
  1
 
  7
MONOTXT
 72
     4
 11
1004.2785
 21
-251.7336
 31
0.0
210
0.0
220
0.0
230
1.0
100
AcDbText
  0
TEXT
  5
3F8
100
AcDbEntity
  8
1
  6
CONTINUOUS
 62
     7
100
AcDbText
 10
1003.3785
 20
-256.9836
 30
0.0
 40
2.7
  1
 
  7
MONOTXT
 72
     4
 11
1004.2785
 21
-255.6336
 31
0.0
210
0.0
220
0.0
230
1.0
100
AcDbText
  0
TEXT
  5
3F9
100
AcDbEntity
  8
1
  6
CONTINUOUS
 62
     7
100
AcDbText
 10
1003.3785
 20
-260.8836
 30
0.0
 40
2.7
  1
 
  7
MONOTXT
 72
     4
 11
1004.2785
 21
-259.5336
 31
0.0
210
0.0
220
0.0
230
1.0
100
AcDbText
  0
TEXT
  5
3FA
100
AcDbEntity
  8
1
  6
CONTINUOUS
 62
     7
100
AcDbText
 10
1003.3785
 20
-264.7836
 30
0.0
 40
2.7
  1
 
  7
MONOTXT
 72
     4
 11
1004.2785
 21
-263.4336
 31
0.0
210
0.0
220
0.0
230
1.0
100
AcDbText
  0
TEXT
  5
3FB
100
AcDbEntity
  8
1
  6
CONTINUOUS
 62
     7
100
AcDbText
 10
1003.3785
 20
-268.6836
 30
0.0
 40
2.7
  1
 
  7
MONOTXT
 72
     4
 11
1004.2785
 21
-267.3336
 31
0.0
210
0.0
220
0.0
230
1.0
100
AcDbText
  0
TEXT
  5
3FC
100
AcDbEntity
  8
1
  6
CONTINUOUS
 62
     7
100
AcDbText
 10
1003.3785
 20
-272.5836
 30
0.0
 40
2.7
  1
 
  7
MONOTXT
 72
     4
 11
1004.2785
 21
-271.2336
 31
0.0
210
0.0
220
0.0
230
1.0
100
AcDbText
  0
TEXT
  5
3FD
100
AcDbEntity
  8
1
  6
CONTINUOUS
 62
     7
100
AcDbText
 10
1003.3785
 20
-276.4836
 30
0.0
 40
2.7
  1
 
  7
MONOTXT
 72
     4
 11
1004.2785
 21
-275.1336
 31
0.0
210
0.0
220
0.0
230
1.0
100
AcDbText
  0
TEXT
  5
3FE
100
AcDbEntity
  8
1
  6
CONTINUOUS
 62
     7
100
AcDbText
 10
1003.3785
 20
-280.3836
 30
0.0
 40
2.7
  1
 
  7
MONOTXT
 72
     4
 11
1004.2785
 21
-279.0336
 31
0.0
210
0.0
220
0.0
230
1.0
100
AcDbText
  0
TEXT
  5
3FF
100
AcDbEntity
  8
1
  6
CONTINUOUS
 62
     7
100
AcDbText
 10
995.7994
 20
-284.2836
 30
0.0
 40
2.7
  1
90km/hr
  7
MONOTXT
 72
     4
 11
1004.282
 21
-282.9336
 31
0.0
210
0.0
220
0.0
230
1.0
100
AcDbText
  0
ENDSEC
  0
SECTION
  2
OBJECTS
  0
DICTIONARY
  5
19
100
AcDbDictionary
  3
ACAD_GROUP
350
1A
  3
ACAD_MLINESTYLE
350
1B
  0
DICTIONARY
  5
1A
102
{ACAD_REACTORS
330
19
102
}
100
AcDbDictionary
  0
DICTIONARY
  5
1B
102
{ACAD_REACTORS
330
19
102
}
100
AcDbDictionary
  3
STANDARD
350
1C
  0
MLINESTYLE
  5
1C
102
{ACAD_REACTORS
330
1B
102
}
100
AcDbMlineStyle
  2
STANDARD
 70
     0
  3

 62
     0
 51
90.0
 52
90.0
 71
     2
 49
0.5
 62
   256
  6
BYLAYER
 49
-0.5
 62
   256
  6
BYLAYER
  0
ENDSEC
  0
EOF
