  0
SECTION
  2
HEADER
  9
$ACADVER
  1
AC1015
  9
$ACADMAINTVER
 70
     6
  9
$DWGCODEPAGE
  3
ANSI_1252
  9
$INSBASE
 10
0.0
 20
0.0
 30
0.0
  9
$EXTMIN
 10
9147.799213
 20
-14524.165354
 30
0.0
  9
$EXTMAX
 10
9484.401575
 20
-14306.362205
 30
0.0
  9
$LIMMIN
 10
8514.254119
 20
-15217.110055
  9
$LIMMAX
 10
10117.946669
 20
-13613.417504
  9
$ORTHOMODE
 70
     0
  9
$REGENMODE
 70
     1
  9
$FILLMODE
 70
     1
  9
$QTEXTMODE
 70
     0
  9
$MIRRTEXT
 70
     1
  9
$LTSCALE
 40
1.0
  9
$ATTMODE
 70
     1
  9
$TEXTSIZE
 40
0.75
  9
$TRACEWID
 40
0.05
  9
$TEXTSTYLE
  7
STD SHEET
  9
$CLAYER
  8
0
  9
$CELTYPE
  6
ByLayer
  9
$CECOLOR
 62
   256
  9
$CELTSCALE
 40
1.0
  9
$DISPSILH
 70
     0
  9
$DIMSCALE
 40
1.0
  9
$DIMASZ
 40
1.125
  9
$DIMEXO
 40
0.5625
  9
$DIMDLI
 40
0.0
  9
$DIMRND
 40
0.0
  9
$DIMDLE
 40
0.0
  9
$DIMEXE
 40
0.84375
  9
$DIMTP
 40
0.0
  9
$DIMTM
 40
0.0
  9
$DIMTXT
 40
1.125
  9
$DIMCEN
 40
0.09
  9
$DIMTSZ
 40
0.0
  9
$DIMTOL
 70
     0
  9
$DIMLIM
 70
     0
  9
$DIMTIH
 70
     0
  9
$DIMTOH
 70
     0
  9
$DIMSE1
 70
     0
  9
$DIMSE2
 70
     0
  9
$DIMTAD
 70
     1
  9
$DIMZIN
 70
    11
  9
$DIMBLK
  1

  9
$DIMASO
 70
     1
  9
$DIMSHO
 70
     1
  9
$DIMPOST
  1

  9
$DIMAPOST
  1

  9
$DIMALT
 70
     0
  9
$DIMALTD
 70
     4
  9
$DIMALTF
 40
0.0254
  9
$DIMLFAC
 40
1.0
  9
$DIMTOFL
 70
     0
  9
$DIMTVP
 40
0.0
  9
$DIMTIX
 70
     0
  9
$DIMSOXD
 70
     0
  9
$DIMSAH
 70
     0
  9
$DIMBLK1
  1

  9
$DIMBLK2
  1

  9
$DIMSTYLE
  2
Style 1
  9
$DIMCLRD
 70
     1
  9
$DIMCLRE
 70
     1
  9
$DIMCLRT
 70
     1
  9
$DIMTFAC
 40
1.0
  9
$DIMGAP
 40
0.5625
  9
$DIMJUST
 70
     0
  9
$DIMSD1
 70
     0
  9
$DIMSD2
 70
     0
  9
$DIMTOLJ
 70
     0
  9
$DIMTZIN
 70
    11
  9
$DIMALTZ
 70
    15
  9
$DIMALTTZ
 70
    15
  9
$DIMUPT
 70
     1
  9
$DIMDEC
 70
     4
  9
$DIMTDEC
 70
     4
  9
$DIMALTU
 70
     2
  9
$DIMALTTD
 70
     4
  9
$DIMTXSTY
  7
STD SHEET
  9
$DIMAUNIT
 70
     0
  9
$DIMADEC
 70
     4
  9
$DIMALTRND
 40
0.0
  9
$DIMAZIN
 70
     3
  9
$DIMDSEP
 70
    46
  9
$DIMATFIT
 70
     3
  9
$DIMFRAC
 70
     0
  9
$DIMLDRBLK
  1

  9
$DIMLUNIT
 70
     4
  9
$DIMLWD
 70
    13
  9
$DIMLWE
 70
    13
  9
$DIMTMOVE
 70
     0
  9
$LUNITS
 70
     4
  9
$LUPREC
 70
     4
  9
$SKETCHINC
 40
0.1
  9
$FILLETRAD
 40
0.5
  9
$AUNITS
 70
     0
  9
$AUPREC
 70
     4
  9
$MENU
  1
.
  9
$ELEVATION
 40
0.0
  9
$PELEVATION
 40
0.0
  9
$THICKNESS
 40
0.0
  9
$LIMCHECK
 70
     0
  9
$CHAMFERA
 40
0.5
  9
$CHAMFERB
 40
0.5
  9
$CHAMFERC
 40
1.0
  9
$CHAMFERD
 40
0.0
  9
$SKPOLY
 70
     0
  9
$TDCREATE
 40
2451789.32913537
  9
$TDUCREATE
 40
2451789.537468704
  9
$TDUPDATE
 40
2451789.329227963
  9
$TDUUPDATE
 40
2451789.537561297
  9
$TDINDWG
 40
0.0000927662
  9
$TDUSRTIMER
 40
0.0000925926
  9
$USRTIMER
 70
     1
  9
$ANGBASE
 50
0.0
  9
$ANGDIR
 70
     0
  9
$PDMODE
 70
     0
  9
$PDSIZE
 40
0.0
  9
$PLINEWID
 40
0.0
  9
$SPLFRAME
 70
     0
  9
$SPLINETYPE
 70
     6
  9
$SPLINESEGS
 70
     8
  9
$HANDSEED
  5
18D0A
  9
$SURFTAB1
 70
     6
  9
$SURFTAB2
 70
     6
  9
$SURFTYPE
 70
     6
  9
$SURFU
 70
     6
  9
$SURFV
 70
     6
  9
$UCSBASE
  2

  9
$UCSNAME
  2

  9
$UCSORG
 10
0.0
 20
0.0
 30
0.0
  9
$UCSXDIR
 10
1.0
 20
0.0
 30
0.0
  9
$UCSYDIR
 10
0.0
 20
1.0
 30
0.0
  9
$UCSORTHOREF
  2

  9
$UCSORTHOVIEW
 70
     0
  9
$UCSORGTOP
 10
0.0
 20
0.0
 30
0.0
  9
$UCSORGBOTTOM
 10
0.0
 20
0.0
 30
0.0
  9
$UCSORGLEFT
 10
0.0
 20
0.0
 30
0.0
  9
$UCSORGRIGHT
 10
0.0
 20
0.0
 30
0.0
  9
$UCSORGFRONT
 10
0.0
 20
0.0
 30
0.0
  9
$UCSORGBACK
 10
0.0
 20
0.0
 30
0.0
  9
$PUCSBASE
  2

  9
$PUCSNAME
  2

  9
$PUCSORG
 10
0.0
 20
0.0
 30
0.0
  9
$PUCSXDIR
 10
1.0
 20
0.0
 30
0.0
  9
$PUCSYDIR
 10
0.0
 20
1.0
 30
0.0
  9
$PUCSORTHOREF
  2

  9
$PUCSORTHOVIEW
 70
     0
  9
$PUCSORGTOP
 10
0.0
 20
0.0
 30
0.0
  9
$PUCSORGBOTTOM
 10
0.0
 20
0.0
 30
0.0
  9
$PUCSORGLEFT
 10
0.0
 20
0.0
 30
0.0
  9
$PUCSORGRIGHT
 10
0.0
 20
0.0
 30
0.0
  9
$PUCSORGFRONT
 10
0.0
 20
0.0
 30
0.0
  9
$PUCSORGBACK
 10
0.0
 20
0.0
 30
0.0
  9
$USERI1
 70
     0
  9
$USERI2
 70
     0
  9
$USERI3
 70
     0
  9
$USERI4
 70
     0
  9
$USERI5
 70
     0
  9
$USERR1
 40
0.0
  9
$USERR2
 40
0.0
  9
$USERR3
 40
0.0
  9
$USERR4
 40
0.0
  9
$USERR5
 40
0.0
  9
$WORLDVIEW
 70
     1
  9
$SHADEDGE
 70
     3
  9
$SHADEDIF
 70
    70
  9
$TILEMODE
 70
     1
  9
$MAXACTVP
 70
    64
  9
$PINSBASE
 10
0.0
 20
0.0
 30
0.0
  9
$PLIMCHECK
 70
     0
  9
$PEXTMIN
 10
1.000000E+20
 20
1.000000E+20
 30
1.000000E+20
  9
$PEXTMAX
 10
-1.000000E+20
 20
-1.000000E+20
 30
-1.000000E+20
  9
$PLIMMIN
 10
0.0
 20
0.0
  9
$PLIMMAX
 10
12.0
 20
9.0
  9
$UNITMODE
 70
     0
  9
$VISRETAIN
 70
     1
  9
$PLINEGEN
 70
     0
  9
$PSLTSCALE
 70
     0
  9
$TREEDEPTH
 70
  3020
  9
$CMLSTYLE
  2
Standard
  9
$CMLJUST
 70
     0
  9
$CMLSCALE
 40
1.0
  9
$PROXYGRAPHICS
 70
     1
  9
$MEASUREMENT
 70
     0
  9
$CELWEIGHT
370
    -1
  9
$ENDCAPS
280
     0
  9
$JOINSTYLE
280
     0
  9
$LWDISPLAY
290
     1
  9
$INSUNITS
 70
     1
  9
$HYPERLINKBASE
  1

  9
$STYLESHEET
  1

  9
$XEDIT
290
     1
  9
$CEPSNTYPE
380
     0
  9
$PSTYLEMODE
290
     1
  9
$FINGERPRINTGUID
  2
{FDEAD576-A652-11D2-9A35-0060089B3A3F}
  9
$VERSIONGUID
  2
{A257D680-BC79-11D2-9A46-0060089B3A3F}
  9
$EXTNAMES
290
     1
  9
$PSVPSCALE
 40
0.0
  9
$OLESTARTUP
290
     0
  0
ENDSEC
  0
SECTION
  2
CLASSES
  0
CLASS
  1
ACDBDICTIONARYWDFLT
  2
AcDbDictionaryWithDefault
  3
ObjectDBX Classes
 90
        0
280
     0
281
     0
  0
CLASS
  1
ACDBPLACEHOLDER
  2
AcDbPlaceHolder
  3
ObjectDBX Classes
 90
        0
280
     0
281
     0
  0
CLASS
  1
LAYOUT
  2
AcDbLayout
  3
ObjectDBX Classes
 90
        0
280
     0
281
     0
  0
ENDSEC
  0
SECTION
  2
TABLES
  0
TABLE
  2
VPORT
  5
18CEC
330
0
100
AcDbSymbolTable
 70
     3
  0
VPORT
  5
4B
330
18CEC
100
AcDbSymbolTableRecord
100
AcDbViewportTableRecord
  2
*ACTIVE
 70
     0
 10
0.0
 20
0.0
 11
1.0
 21
1.0
 12
9316.100394
 22
-14415.26378
 13
0.0
 23
0.0
 14
3.937008
 24
3.937008
 15
1.0
 25
1.0
 16
0.0
 26
0.0
 36
1.0
 17
0.0
 27
0.0
 37
0.0
 40
226.515276
 41
1.56746
 42
50.0
 43
0.0
 44
0.0
 50
0.0
 51
0.0
 71
     0
 72
   100
 73
     1
 74
     2
 75
     0
 76
     0
 77
     0
 78
     1
281
     0
 65
     1
110
0.0
120
0.0
130
0.0
111
1.0
121
0.0
131
0.0
112
0.0
122
1.0
132
0.0
 79
     0
146
0.0
  0
ENDTAB
  0
TABLE
  2
LTYPE
  5
18CE8
330
0
100
AcDbSymbolTable
 70
     2
  0
LTYPE
  5
18CE9
330
18CE8
100
AcDbSymbolTableRecord
100
AcDbLinetypeTableRecord
  2
ByBlock
 70
     0
  3

 72
    65
 73
     0
 40
0.0
  0
LTYPE
  5
18CDA
330
18CE8
100
AcDbSymbolTableRecord
100
AcDbLinetypeTableRecord
  2
ByLayer
 70
     0
  3

 72
    65
 73
     0
 40
0.0
  0
LTYPE
  5
18CD8
330
18CE8
100
AcDbSymbolTableRecord
100
AcDbLinetypeTableRecord
  2
Continuous
 70
     0
  3
Solid line
 72
    65
 73
     0
 40
0.0
  0
LTYPE
  5
18D00
330
18CE8
100
AcDbSymbolTableRecord
100
AcDbLinetypeTableRecord
  2
DGN Style 1
 70
     0
  3
Dgn Style 1
 72
    65
 73
     2
 40
2.130322
 49
0.0
 74
     0
 49
-2.130322
 74
     0
  0
ENDTAB
  0
TABLE
  2
LAYER
  5
18CE6
102
{ACAD_XDICTIONARY
360
18CF7
102
}
330
0
100
AcDbSymbolTable
 70
    18
  0
LAYER
  5
18CD6
330
18CE6
100
AcDbSymbolTableRecord
100
AcDbLayerTableRecord
  2
0
 70
     0
 62
     7
  6
Continuous
370
    13
390
18CD7
  0
LAYER
  5
5CCB
330
18CE6
100
AcDbSymbolTableRecord
100
AcDbLayerTableRecord
  2
14
 70
     0
 62
     7
  6
Continuous
370
     0
390
18CD7
  0
LAYER
  5
5CCC
330
18CE6
100
AcDbSymbolTableRecord
100
AcDbLayerTableRecord
  2
63
 70
     0
 62
     7
  6
Continuous
370
     0
390
18CD7
  0
LAYER
  5
129EE
330
18CE6
100
AcDbSymbolTableRecord
100
AcDbLayerTableRecord
  2
Level 20
 70
     0
 62
     7
  6
Continuous
370
     0
390
18CD7
  0
LAYER
  5
129EF
330
18CE6
100
AcDbSymbolTableRecord
100
AcDbLayerTableRecord
  2
Level 7
 70
     0
 62
     7
  6
Continuous
370
     0
390
18CD7
  0
LAYER
  5
129F0
330
18CE6
100
AcDbSymbolTableRecord
100
AcDbLayerTableRecord
  2
Level 61
 70
     0
 62
     7
  6
Continuous
370
     0
390
18CD7
  0
LAYER
  5
129F1
330
18CE6
100
AcDbSymbolTableRecord
100
AcDbLayerTableRecord
  2
Level 1
 70
     0
 62
     7
  6
Continuous
370
     0
390
18CD7
  0
LAYER
  5
129F2
330
18CE6
100
AcDbSymbolTableRecord
100
AcDbLayerTableRecord
  2
Level 2
 70
     0
 62
     7
  6
Continuous
370
     0
390
18CD7
  0
LAYER
  5
129F3
330
18CE6
100
AcDbSymbolTableRecord
100
AcDbLayerTableRecord
  2
Level 14
 70
     0
 62
     7
  6
Continuous
370
     0
390
18CD7
  0
LAYER
  5
129F4
330
18CE6
100
AcDbSymbolTableRecord
100
AcDbLayerTableRecord
  2
Level 17
 70
     0
 62
     7
  6
Continuous
370
     0
390
18CD7
  0
LAYER
  5
129F5
330
18CE6
100
AcDbSymbolTableRecord
100
AcDbLayerTableRecord
  2
Level 21
 70
     0
 62
     7
  6
Continuous
370
     0
390
18CD7
  0
LAYER
  5
129F6
330
18CE6
100
AcDbSymbolTableRecord
100
AcDbLayerTableRecord
  2
Level 3
 70
     0
 62
     7
  6
Continuous
370
     0
390
18CD7
  0
LAYER
  5
12C30
330
18CE6
100
AcDbSymbolTableRecord
100
AcDbLayerTableRecord
  2
Level 4
 70
     0
 62
     7
  6
Continuous
370
     0
390
18CD7
  0
LAYER
  5
12C31
330
18CE6
100
AcDbSymbolTableRecord
100
AcDbLayerTableRecord
  2
Level 10
 70
     0
 62
     7
  6
Continuous
370
     0
390
18CD7
  0
LAYER
  5
12C32
330
18CE6
100
AcDbSymbolTableRecord
100
AcDbLayerTableRecord
  2
Level 23
 70
     0
 62
     7
  6
Continuous
370
     0
390
18CD7
  0
LAYER
  5
18AA0
330
18CE6
100
AcDbSymbolTableRecord
100
AcDbLayerTableRecord
  2
SIDEWALK
 70
     0
 62
     5
  6
Continuous
370
    40
390
18CD7
  0
LAYER
  5
18ABC
330
18CE6
100
AcDbSymbolTableRecord
100
AcDbLayerTableRecord
  2
REBAR
 70
     0
 62
     3
  6
Continuous
370
    53
390
18CD7
  0
LAYER
  5
18ABF
330
18CE6
100
AcDbSymbolTableRecord
100
AcDbLayerTableRecord
  2
CURBLINE
 70
     0
 62
     5
  6
Continuous
370
    40
390
18CD7
  0
ENDTAB
  0
TABLE
  2
STYLE
  5
18CE7
330
0
100
AcDbSymbolTable
 70
     9
  0
STYLE
  5
18CD9
330
18CE7
100
AcDbSymbolTableRecord
100
AcDbTextStyleTableRecord
  2
Standard
 70
     0
 40
0.0
 41
1.0
 50
0.0
 71
     0
 42
0.2
  3
txt
  4

  0
STYLE
  5
165
330
18CE7
100
AcDbSymbolTableRecord
100
AcDbTextStyleTableRecord
  2
Style 1
 70
     0
 40
2.3
 41
1.0
 50
0.0
 71
     0
 42
0.2
  3
gen_eng.shx
  4

  0
STYLE
  5
53A
330
18CE7
100
AcDbSymbolTableRecord
100
AcDbTextStyleTableRecord
  2
Style 2 - FS Sheet
 70
     0
 40
0.1
 41
1.0
 50
0.0
 71
     0
 42
0.2
  3
gen_eng.shx
  4

  0
STYLE
  5
1214
330
18CE7
100
AcDbSymbolTableRecord
100
AcDbTextStyleTableRecord
  2
Style 1A
 70
     0
 40
2.35
 41
1.0
 50
0.0
 71
     0
 42
0.2
  3
gen_eng.shx
  4

  0
STYLE
  5
1215
330
18CE7
100
AcDbSymbolTableRecord
100
AcDbTextStyleTableRecord
  2
Style 2A
 70
     0
 40
0.09
 41
1.0
 50
0.0
 71
     0
 42
0.2
  3
gen_eng.shx
  4

  0
STYLE
  5
16350
330
18CE7
100
AcDbSymbolTableRecord
100
AcDbTextStyleTableRecord
  2
STD SHEET
 70
     0
 40
1.125
 41
1.0
 50
0.0
 71
     0
 42
0.75
  3
gen_eng.shx
  4

  0
STYLE
  5
16719
330
18CE7
100
AcDbSymbolTableRecord
100
AcDbTextStyleTableRecord
  2
LABELS
 70
     0
 40
1.9375
 41
1.0
 50
0.0
 71
     0
 42
0.2
  3
gen_eng.shx
  4

  0
STYLE
  5
18CF9
330
18CE7
100
AcDbSymbolTableRecord
100
AcDbTextStyleTableRecord
  2
Style-Arial
 70
     0
 40
0.0
 41
1.0
 50
0.0
 71
     0
 42
0.2
  3

  4

1001
ACAD
1000
Arial
1071
       39
  0
STYLE
  5
18D01
330
18CE7
100
AcDbSymbolTableRecord
100
AcDbTextStyleTableRecord
  2
Style-gen_eng
 70
     0
 40
0.0
 41
1.0
 50
0.0
 71
     0
 42
0.2
  3
gen_eng.shx
  4

  0
ENDTAB
  0
TABLE
  2
VIEW
  5
18CEA
330
0
100
AcDbSymbolTable
 70
     2
  0
VIEW
  5
5AD
330
18CEA
100
AcDbSymbolTableRecord
100
AcDbViewTableRecord
  2
LASTVU
 70
     0
 40
18.99211
 10
14.128263
 20
98.681151
 41
32.11
 11
0.0
 21
0.0
 31
1.0
 12
0.0
 22
0.0
 32
0.0
 42
50.0
 43
0.0
 44
0.0
 50
0.0
 71
     0
281
     0
 72
     0
  0
VIEW
  5
5AF
330
18CEA
100
AcDbSymbolTableRecord
100
AcDbViewTableRecord
  2
LASTVUÒÒ\U+d2d2p\U+c300\U+c3c3 U+c3c3
 70
     0
 40
435.826153
 10
1060.057893
 20
-413.602132
 41
743.287283
 11
0.0
 21
0.0
 31
1.0
 12
0.0
 22
0.0
 32
0.0
 42
50.0
 43
0.0
 44
0.0
 50
0.0
 71
     0
281
     0
 72
     0
  0
ENDTAB
  0
TABLE
  2
UCS
  5
18CEB
330
0
100
AcDbSymbolTable
 70
     0
  0
ENDTAB
  0
TABLE
  2
APPID
  5
18CED
330
0
100
AcDbSymbolTable
 70
     1
  0
APPID
  5
18CF5
330
18CED
100
AcDbSymbolTableRecord
100
AcDbRegAppTableRecord
  2
ACAD
 70
     0
  0
ENDTAB
  0
TABLE
  2
DIMSTYLE
  5
18CEE
330
0
100
AcDbSymbolTable
 70
     5
100
AcDbDimStyleTable
  0
DIMSTYLE
105
18CDB
330
18CEE
100
AcDbSymbolTableRecord
100
AcDbDimStyleTableRecord
  2
Standard
 70
     0
340
18CD9
  0
DIMSTYLE
105
132
330
18CEE
100
AcDbSymbolTableRecord
100
AcDbDimStyleTableRecord
  2
Style 1
 70
     0
 41
1.125
 42
0.5625
 43
0.0
 44
0.84375
 73
     0
 74
     0
 77
     1
 78
    11
 79
     3
140
1.125
143
0.0254
147
0.5625
171
     4
176
     1
177
     1
178
     1
179
     4
274
     4
277
     4
283
     0
284
    11
285
    15
286
    15
288
     1
340
16350
371
    13
372
    13
  0
DIMSTYLE
105
4722
330
18CEE
100
AcDbSymbolTableRecord
100
AcDbDimStyleTableRecord
  2
Style 1a
 70
     0
 41
0.9
 42
0.3
 43
0.0
 44
0.3
 73
     0
 74
     0
 77
     1
 78
    11
 79
     3
140
0.6
143
0.0254
147
0.3
171
     4
176
     1
177
     1
178
     1
179
     4
274
     4
276
     2
279
     1
283
     0
284
    11
285
    15
286
    15
340
18CF9
342
18CFA
371
    13
372
    13
  0
DIMSTYLE
105
4B38
330
18CEE
100
AcDbSymbolTableRecord
100
AcDbDimStyleTableRecord
  2
Style 1b
 70
     0
 41
0.6
 42
0.3
 43
0.0
 44
0.45
 73
     0
 74
     0
 77
     1
 78
    11
 79
     3
140
0.6
143
0.0254
147
0.3
171
     4
176
     1
177
     1
178
     1
179
     4
274
     4
276
     2
283
     0
284
    11
285
    15
286
    15
340
18CF9
371
    13
372
    13
  0
DIMSTYLE
105
501C
330
18CEE
100
AcDbSymbolTableRecord
100
AcDbDimStyleTableRecord
  2
Style 2
 70
     0
 41
0.06
 42
0.03
 43
0.0
 44
0.045
 73
     0
 74
     0
 77
     1
 78
    11
 79
     3
140
0.06
143
0.0254
147
0.03
171
     4
176
     1
177
     1
178
     5
179
     4
274
     4
276
     2
283
     0
284
    11
285
    15
286
    15
288
     1
340
18CF9
371
    13
372
    13
  0
ENDTAB
  0
TABLE
  2
BLOCK_RECORD
  5
18CDD
330
0
100
AcDbSymbolTable
 70
     2
  0
BLOCK_RECORD
  5
18CDE
330
18CDD
100
AcDbSymbolTableRecord
100
AcDbBlockTableRecord
  2
*Model_Space
340
18CE1
  0
BLOCK_RECORD
  5
18CE2
330
18CDD
100
AcDbSymbolTableRecord
100
AcDbBlockTableRecord
  2
*Paper_Space
340
18CE5
  0
BLOCK_RECORD
  5
18CFA
330
18CDD
100
AcDbSymbolTableRecord
100
AcDbBlockTableRecord
  2
TerminatorDot
340
0
  0
BLOCK_RECORD
  5
18D02
330
18CDD
100
AcDbSymbolTableRecord
100
AcDbBlockTableRecord
  2
Greg's Signature
340
0
102
{BLKREFS
331
18CCD
102
}
  0
ENDTAB
  0
ENDSEC
  0
SECTION
  2
BLOCKS
  0
BLOCK
  5
18CDF
330
18CDE
100
AcDbEntity
  8
0
100
AcDbBlockBegin
  2
*Model_Space
 70
     0
 71
     0
 10
0.0
 20
0.0
 30
0.0
  3
*Model_Space
  1

  0
ENDBLK
  5
18CE0
330
18CDE
100
AcDbEntity
  8
0
100
AcDbBlockEnd
  0
BLOCK
  5
18CE3
330
18CE2
100
AcDbEntity
 67
     1
  8
0
100
AcDbBlockBegin
  2
*Paper_Space
 70
     0
 71
     0
 10
0.0
 20
0.0
 30
0.0
  3
*Paper_Space
  1

  0
ENDBLK
  5
18CE4
330
18CE2
100
AcDbEntity
 67
     1
  8
0
100
AcDbBlockEnd
  0
BLOCK
  5
18CFD
330
18CFA
100
AcDbEntity
  8
0
100
AcDbBlockBegin
  2
TerminatorDot
 70
     0
 71
     0
 10
0.0
 20
0.0
 30
0.0
  3
TerminatorDot
  1

  0
LWPOLYLINE
  5
18CFB
330
18CFA
100
AcDbEntity
  8
0
  6
ByBlock
 62
     0
370
    -2
100
AcDbPolyline
 90
        2
 70
     1
 43
0.5
 10
-0.0625
 20
0.0
 42
1.0
 10
0.0625
 20
0.0
 42
1.0
  0
LINE
  5
18CFC
330
18CFA
100
AcDbEntity
  8
0
  6
ByBlock
 62
     0
370
    -2
100
AcDbLine
 10
0.0
 20
0.0
 30
0.0
 11
-1.0
 21
0.0
 31
0.0
  0
ENDBLK
  5
18CFE
330
18CFA
100
AcDbEntity
  8
0
100
AcDbBlockEnd
  0
BLOCK
  5
18D03
330
18D02
100
AcDbEntity
  8
0
100
AcDbBlockBegin
  2
Greg's Signature
 70
     0
 71
     0
 10
0.0
 20
0.0
 30
0.0
  3
Greg's Signature
  1

  0
LWPOLYLINE
  5
18CCE
330
18D02
100
AcDbEntity
  8
Level 1
370
    30
100
AcDbPolyline
 90
       49
 70
   128
 43
0.0
 10
-742.284353
 20
-59.508477
 10
-724.481442
 20
-62.475629
 10
-713.028978
 20
-56.885515
 10
-697.777076
 20
-47.63987
 10
-685.908469
 20
-35.771263
 10
-671.07271
 20
-26.869807
 10
-657.720526
 20
-13.517624
 10
-650.302647
 20
4.285287
 10
-639.917615
 20
17.63747
 10
-626.565432
 20
29.506077
 10
-616.180401
 20
44.341836
 10
-608.762521
 20
60.661171
 10
-605.79537
 20
79.947658
 10
-602.828218
 20
97.750569
 10
-601.344642
 20
115.55348
 10
-611.729673
 20
133.356391
 10
-628.049008
 20
133.356391
 10
-636.950464
 20
120.004208
 10
-639.917615
 20
103.684873
 10
-639.917615
 20
85.881962
 10
-628.049008
 20
74.013355
 10
-617.663977
 20
59.177596
 10
-602.828218
 20
50.27614
 10
-583.541731
 20
48.792564
 10
-567.222396
 20
51.759716
 10
-556.837365
 20
65.111899
 10
-546.452333
 20
81.431234
 10
-537.550878
 20
75.496931
 10
-540.51803
 20
59.177596
 10
-536.067302
 20
42.858261
 10
-530.132998
 20
28.022501
 10
-524.198695
 20
13.186742
 10
-521.231543
 20
-4.616169
 10
-518.264391
 20
-22.419079
 10
-518.264391
 20
-40.22199
 10
-528.649422
 20
-59.508477
 10
-540.51803
 20
-71.377084
 10
-559.804516
 20
-71.377084
 10
-574.640276
 20
-67.297251
 10
-592.443186
 20
-62.475629
 10
-607.278945
 20
-53.574174
 10
-622.114705
 20
-49.786604
 10
-638.43404
 20
-41.705566
 10
-654.753375
 20
-35.771263
 10
-668.105558
 20
-26.869807
 10
-682.941317
 20
-20.935504
 10
-697.777076
 20
-15.0012
 10
-711.129259
 20
-6.099744
 10
-725.965018
 20
-3.132593
  0
LWPOLYLINE
  5
18CCF
330
18D02
100
AcDbEntity
  8
Level 1
370
    30
100
AcDbPolyline
 90
       96
 70
   128
 43
0.0
 10
-494.156282
 20
-99.565027
 10
-489.705555
 20
-82.503904
 10
-487.480191
 20
-66.184569
 10
-485.254827
 20
-49.865234
 10
-482.287675
 20
-33.545899
 10
-476.353372
 20
-17.226564
 10
-466.710128
 20
-3.874381
 10
-454.099733
 20
-13.517624
 10
-446.681853
 20
-35.771263
 10
-443.714702
 20
-52.090598
 10
-433.32967
 20
-63.959205
 10
-411.81782
 20
-72.118872
 10
-399.949212
 20
-60.992053
 10
-389.564181
 20
-47.63987
 10
-379.920938
 20
-35.029475
 10
-374.728422
 20
-19.451928
 10
-368.794118
 20
-3.874381
 10
-371.019482
 20
12.444954
 10
-392.531333
 20
15.412106
 10
-392.531333
 20
-0.907229
 10
-392.531333
 20
-17.226564
 10
-390.305969
 20
-33.545899
 10
-384.371665
 20
-49.123446
 10
-365.826966
 20
-50.607022
 10
-355.441935
 20
-38.738414
 10
-350.249419
 20
-22.419079
 10
-335.41366
 20
-15.742988
 10
-319.094325
 20
-15.742988
 10
-300.549626
 20
-29.836959
 10
-305.742142
 20
-50.607022
 10
-322.061477
 20
-52.090598
 10
-330.962933
 20
-38.738414
 10
-330.221145
 20
-21.677291
 10
-325.028629
 20
-5.357956
 10
-310.934658
 20
2.059923
 10
-294.615323
 20
5.027075
 10
-281.26314
 20
-14.259412
 10
-276.812412
 20
-30.578747
 10
-272.361684
 20
-46.156294
 10
-267.169169
 20
-61.733841
 10
-264.943805
 20
-78.053176
 10
-264.943805
 20
-95.114299
 10
-276.812412
 20
-115.142574
 10
-289.422807
 20
-125.527605
 10
-303.516778
 20
-134.429061
 10
-319.836113
 20
-135.170848
 10
-326.512205
 20
-112.91721
 10
-322.061477
 20
-97.339663
 10
-311.676446
 20
-85.471056
 10
-300.22732
 20
-76.999095
 10
-287.939231
 20
-66.926357
 10
-267.910956
 20
-55.057749
 10
-251.591621
 20
-37.996626
 10
-245.920653
 20
-24.644443
 10
-234.530499
 20
-9.808684
 10
-224.887255
 20
2.801711
 10
-203.375404
 20
-1.649017
 10
-199.666465
 20
-17.968352
 10
-199.666465
 20
-34.287687
 10
-205.600768
 20
-49.865234
 10
-218.211164
 20
-59.508477
 10
-233.788711
 20
-64.700993
 10
-247.882682
 20
-57.283113
 10
-250.849834
 20
-41.705566
 10
-247.140894
 20
-26.128019
 10
-237.49765
 20
-12.775836
 10
-222.661891
 20
-6.841532
 10
-201.150041
 20
-16.484776
 10
-179.63819
 20
-23.902655
 10
-161.093491
 20
-12.034048
 10
-151.450248
 20
0.576347
 10
-143.29058
 20
15.412106
 10
-137.356277
 20
31.731441
 10
-137.356277
 20
23.571774
 10
-138.839852
 20
7.252439
 10
-132.163761
 20
-7.58332
 10
-112.877274
 20
-2.390805
 10
-102.492243
 20
10.219591
 10
-101.008667
 20
9.477803
 10
-103.234031
 20
-6.841532
 10
-94.332575
 20
-21.677291
 10
-82.463968
 20
-32.804111
 10
-81.72218
 20
-49.123446
 10
-81.72218
 20
-65.442781
 10
-90.623635
 20
-78.794964
 10
-102.492243
 20
-89.921783
 10
-118.06979
 20
-96.597875
 10
-133.647337
 20
-100.306815
 10
-143.29058
 20
-87.696419
 10
-132.905549
 20
-73.602448
 10
-118.811578
 20
-63.959205
 10
-102.492243
 20
-60.992053
 10
-89.14006
 20
-52.090598
 10
-66.144633
 20
-47.63987
 10
-54.276026
 20
-66.184569
 10
-52.79245
 20
-65.442781
  0
LWPOLYLINE
  5
18CD0
330
18D02
100
AcDbEntity
  8
Level 1
370
    30
100
AcDbPolyline
 90
      123
 70
   128
 43
0.0
 10
30.287801
 20
74.013355
 10
31.029589
 20
65.853687
 10
31.029589
 20
57.69402
 10
31.029589
 20
49.534352
 10
31.029589
 20
40.632897
 10
29.546013
 20
32.473229
 10
28.062437
 20
24.313562
 10
28.062437
 20
16.153894
 10
28.062437
 20
7.994227
 10
28.062437
 20
-0.165441
 10
28.804225
 20
-8.325108
 10
29.546013
 20
-16.484776
 10
29.546013
 20
-24.644443
 10
30.287801
 20
-32.804111
 10
31.771377
 20
-40.963778
 10
32.513165
 20
-49.865234
 10
33.254953
 20
-58.024901
 10
35.480317
 20
-66.184569
 10
40.672832
 20
-72.118872
 10
45.12356
 20
-78.794964
 10
47.348924
 20
-70.635296
 10
50.316076
 20
-63.217417
 10
52.54144
 20
-55.057749
 10
53.283228
 20
-46.898082
 10
53.283228
 20
-38.738414
 10
53.283228
 20
-30.578747
 10
54.025016
 20
-22.419079
 10
54.025016
 20
-14.259412
 10
54.766804
 20
-6.099744
 10
55.508592
 20
2.059923
 10
56.250379
 20
10.219591
 10
56.250379
 20
18.379258
 10
56.250379
 20
26.538926
 10
56.250379
 20
34.698593
 10
56.250379
 20
42.858261
 10
56.250379
 20
51.017928
 10
56.250379
 20
59.177596
 10
56.992167
 20
67.337263
 10
58.475743
 20
75.496931
 10
59.959319
 20
84.398386
 10
62.184683
 20
92.558053
 10
64.410047
 20
100.717721
 10
65.151835
 20
108.877388
 10
68.118987
 20
116.295268
 10
71.086139
 20
123.713148
 10
74.05329
 20
131.131027
 10
78.504018
 20
138.548907
 10
85.921898
 20
141.516058
 10
94.081565
 20
140.77427
 10
102.241233
 20
138.548907
 10
107.433748
 20
132.614603
 10
111.142688
 20
125.196723
 10
115.593416
 20
118.520632
 10
119.302356
 20
111.102752
 10
120.785931
 20
102.943085
 10
121.527719
 20
94.783417
 10
121.527719
 20
86.62375
 10
121.527719
 20
78.464082
 10
121.527719
 20
70.304415
 10
121.527719
 20
62.144747
 10
120.044144
 20
53.98508
 10
115.593416
 20
47.308988
 10
109.659112
 20
42.116473
 10
104.466596
 20
36.182169
 10
101.499445
 20
28.764289
 10
97.048717
 20
22.088198
 10
92.597989
 20
15.412106
 10
89.630837
 20
7.994227
 10
82.954746
 20
3.543499
 10
75.536866
 20
-0.165441
 10
68.860775
 20
-5.357956
 10
61.442895
 20
-9.808684
 10
55.508592
 20
-15.0012
 10
49.574288
 20
-20.935504
 10
45.12356
 20
-27.611595
 10
39.189257
 20
-32.804111
 10
34.738529
 20
-39.480202
 10
30.287801
 20
-46.156294
 10
24.353497
 20
-52.832386
 10
19.90277
 20
-59.508477
 10
16.935618
 20
-66.926357
 10
12.48489
 20
-73.602448
 10
9.517738
 20
-81.020328
 10
8.034162
 20
-89.179995
 10
11.001314
 20
-96.597875
 10
18.419194
 20
-99.565027
 10
26.578861
 20
-100.306815
 10
34.738529
 20
-102.532178
 10
42.898196
 20
-104.015754
 10
51.057864
 20
-104.757542
 10
59.217531
 20
-104.757542
 10
68.118987
 20
-104.757542
 10
76.278654
 20
-104.757542
 10
84.438322
 20
-104.757542
 10
92.597989
 20
-104.757542
 10
100.757657
 20
-104.757542
 10
108.917324
 20
-104.757542
 10
117.076992
 20
-104.757542
 10
123.011295
 20
-98.823239
 10
130.429175
 20
-95.856087
 10
137.105266
 20
-91.405359
 10
143.781358
 20
-85.471056
 10
146.74851
 20
-78.053176
 10
149.715662
 20
-70.635296
 10
154.166389
 20
-63.959205
 10
157.133541
 20
-56.541325
 10
159.358905
 20
-48.381658
 10
160.842481
 20
-40.22199
 10
160.842481
 20
-32.062323
 10
155.649965
 20
-26.128019
 10
149.715662
 20
-20.935504
 10
143.781358
 20
-15.0012
 10
138.588842
 20
-8.325108
 10
131.170963
 20
-3.874381
 10
123.753083
 20
0.576347
 10
115.593416
 20
2.059923
 10
107.433748
 20
3.543499
 10
99.274081
 20
5.027075
 10
90.372625
 20
5.027075
 10
81.47117
 20
5.027075
 10
73.311502
 20
5.027075
 10
65.151835
 20
6.510651
 10
65.151835
 20
6.510651
  0
LWPOLYLINE
  5
18CD1
330
18D02
100
AcDbEntity
  8
Level 1
370
    30
100
AcDbPolyline
 90
       61
 70
   128
 43
0.0
 10
261.725643
 20
-58.766689
 10
263.209219
 20
-50.607022
 10
263.209219
 20
-42.447354
 10
263.209219
 20
-34.287687
 10
256.533127
 20
-28.353383
 10
250.598823
 20
-22.419079
 10
246.148096
 20
-15.742988
 10
239.472004
 20
-11.29226
 10
232.795913
 20
-6.841532
 10
225.378033
 20
-3.874381
 10
217.218366
 20
-3.874381
 10
209.058698
 20
-6.841532
 10
203.124394
 20
-12.034048
 10
196.448303
 20
-17.226564
 10
190.513999
 20
-22.419079
 10
186.063271
 20
-29.095171
 10
183.09612
 20
-36.513051
 10
178.645392
 20
-43.189142
 10
175.67824
 20
-50.607022
 10
180.870756
 20
-56.541325
 10
186.063271
 20
-62.475629
 10
194.964727
 20
-64.700993
 10
203.124394
 20
-64.700993
 10
211.284062
 20
-64.700993
 10
218.701941
 20
-61.733841
 10
223.894457
 20
-55.057749
 10
229.086973
 20
-49.123446
 10
234.279488
 20
-42.447354
 10
241.697368
 20
-37.996626
 10
250.598823
 20
-37.996626
 10
259.500279
 20
-38.738414
 10
266.918158
 20
-41.705566
 10
274.336038
 20
-44.672718
 10
281.01213
 20
-49.123446
 10
289.171797
 20
-49.123446
 10
291.397161
 20
-40.963778
 10
293.622525
 20
-32.804111
 10
294.364313
 20
-23.902655
 10
294.364313
 20
-15.742988
 10
291.397161
 20
-23.160867
 10
289.913585
 20
-31.320535
 10
289.913585
 20
-39.480202
 10
289.913585
 20
-47.63987
 10
290.655373
 20
-55.799537
 10
298.073253
 20
-59.508477
 10
305.491132
 20
-63.959205
 10
313.6508
 20
-66.184569
 10
321.810467
 20
-66.926357
 10
329.970135
 20
-66.926357
 10
338.129802
 20
-65.442781
 10
344.805894
 20
-60.992053
 10
349.256621
 20
-53.574174
 10
355.190925
 20
-48.381658
 10
359.641653
 20
-40.963778
 10
365.575956
 20
-35.771263
 10
372.252048
 20
-31.320535
 10
378.186352
 20
-25.386231
 10
384.120655
 20
-19.451928
 10
390.796747
 20
-15.0012
 10
397.472838
 20
-10.550472
 10
401.923566
 20
-4.616169
  0
LWPOLYLINE
  5
18CD2
330
18D02
100
AcDbEntity
  8
Level 1
370
    30
100
AcDbPolyline
 90
       11
 70
   128
 43
0.0
 10
284.721069
 20
117.037056
 10
284.721069
 20
108.877388
 10
290.655373
 20
103.684873
 10
298.81504
 20
101.459509
 10
306.974708
 20
102.201297
 10
308.458284
 20
110.360964
 10
302.52398
 20
115.55348
 10
296.589677
 20
121.487784
 10
288.430009
 20
121.487784
 10
281.01213
 20
118.520632
 10
281.01213
 20
113.328116
  0
LWPOLYLINE
  5
18CD3
330
18D02
100
AcDbEntity
  8
Level 1
370
    30
100
AcDbPolyline
 90
      123
 70
   128
 43
0.0
 10
403.407142
 20
-4.616169
 10
407.85787
 20
2.059923
 10
412.308597
 20
8.736015
 10
416.759325
 20
15.412106
 10
421.951841
 20
21.34641
 10
428.627932
 20
25.797138
 10
433.820448
 20
31.731441
 10
438.271176
 20
39.149321
 10
441.980116
 20
46.5672
 10
447.172631
 20
53.98508
 10
451.623359
 20
61.402959
 10
454.590511
 20
68.820839
 10
459.041239
 20
76.980506
 10
462.750178
 20
85.140174
 10
466.459118
 20
93.299841
 10
469.42627
 20
100.717721
 10
472.393422
 20
108.1356
 10
475.360574
 20
115.55348
 10
477.585937
 20
123.713148
 10
480.553089
 20
131.131027
 10
482.036665
 20
139.290695
 10
483.520241
 20
147.450362
 10
482.036665
 20
155.61003
 10
476.844149
 20
161.544333
 10
469.42627
 20
164.511485
 10
461.266602
 20
165.995061
 10
453.848723
 20
161.544333
 10
447.172631
 20
157.093605
 10
439.754752
 20
154.126454
 10
433.820448
 20
148.933938
 10
429.36972
 20
142.257846
 10
424.918993
 20
135.581755
 10
418.984689
 20
129.647451
 10
417.501113
 20
121.487784
 10
414.533961
 20
114.069904
 10
411.566809
 20
106.652025
 10
407.116082
 20
99.975933
 10
404.14893
 20
92.558053
 10
399.698202
 20
85.881962
 10
398.214626
 20
77.722294
 10
393.763899
 20
71.046203
 10
392.280323
 20
62.886535
 10
389.313171
 20
54.726868
 10
386.346019
 20
46.5672
 10
383.378867
 20
39.149321
 10
383.378867
 20
30.989653
 10
383.378867
 20
22.829986
 10
384.862443
 20
14.670318
 10
388.571383
 20
7.252439
 10
391.538535
 20
-0.907229
 10
395.247475
 20
-8.325108
 10
401.181778
 20
-13.517624
 10
408.599658
 20
-16.484776
 10
415.275749
 20
-21.677291
 10
423.435417
 20
-23.160867
 10
430.853296
 20
-27.611595
 10
438.271176
 20
-30.578747
 10
447.172631
 20
-31.320535
 10
455.332299
 20
-31.320535
 10
459.783027
 20
-24.644443
 10
464.233754
 20
-17.968352
 10
467.942694
 20
-9.808684
 10
470.909846
 20
-1.649017
 10
471.651634
 20
6.510651
 10
473.876998
 20
15.412106
 10
467.942694
 20
20.604622
 10
464.975542
 20
12.444954
 10
462.00839
 20
5.027075
 10
462.00839
 20
-3.132593
 10
462.00839
 20
-11.29226
 10
462.00839
 20
-19.451928
 10
464.975542
 20
-27.611595
 10
472.393422
 20
-32.062323
 10
479.811301
 20
-35.029475
 10
487.970969
 20
-35.771263
 10
496.130636
 20
-35.771263
 10
503.548516
 20
-32.804111
 10
507.999244
 20
-25.386231
 10
513.191759
 20
-19.451928
 10
516.900699
 20
-11.29226
 10
519.126063
 20
-3.132593
 10
515.417123
 20
-11.29226
 10
512.449971
 20
-18.71014
 10
509.482819
 20
-26.128019
 10
512.449971
 20
-33.545899
 10
519.867851
 20
-37.254839
 10
527.28573
 20
-40.963778
 10
532.478246
 20
-46.898082
 10
540.637914
 20
-49.123446
 10
548.797581
 20
-52.090598
 10
553.990097
 20
-58.024901
 10
556.957249
 20
-65.442781
 10
559.9244
 20
-72.86066
 10
559.9244
 20
-81.020328
 10
558.440824
 20
-89.179995
 10
552.506521
 20
-94.372511
 10
548.055793
 20
-101.048603
 10
542.121489
 20
-107.724694
 10
537.670762
 20
-114.400786
 10
530.252882
 20
-119.593301
 10
524.318579
 20
-124.785817
 10
516.900699
 20
-129.236545
 10
509.482819
 20
-133.687273
 10
502.806728
 20
-138.138
 10
493.905272
 20
-138.879788
 10
485.745605
 20
-139.621576
 10
477.585937
 20
-139.621576
 10
470.168058
 20
-135.170848
 10
465.71733
 20
-128.494757
 10
464.233754
 20
-120.335089
 10
464.975542
 20
-112.175422
 10
467.200906
 20
-104.015754
 10
471.651634
 20
-96.597875
 10
476.844149
 20
-90.663571
 10
484.262029
 20
-87.696419
 10
491.679909
 20
-84.729268
 10
499.839576
 20
-83.245692
 10
507.999244
 20
-83.245692
 10
516.158911
 20
-81.762116
 10
524.318579
 20
-81.762116
 10
532.478246
 20
-80.27854
 10
540.637914
 20
-78.794964
 10
545.088641
 20
-77.311388
  0
ENDBLK
  5
18D04
330
18D02
100
AcDbEntity
  8
0
100
AcDbBlockEnd
  0
ENDSEC
  0
SECTION
  2
ENTITIES
  0
POINT
  5
17E1C
330
18CDE
100
AcDbEntity
  8
0
  6
Continuous
 62
   250
370
   211
100
AcDbPoint
 10
9147.800901
 20
-14306.364817
 30
0.0
  0
POINT
  5
17E1E
330
18CDE
100
AcDbEntity
  8
0
  6
Continuous
 62
   250
370
   211
100
AcDbPoint
 10
9484.400901
 20
-14524.164817
 30
0.0
  0
LINE
  5
17E20
330
18CDE
100
AcDbEntity
  8
0
  6
Continuous
 62
    30
370
   106
100
AcDbLine
 10
9162.650901
 20
-14519.214817
 30
0.0
 11
9162.650901
 21
-14311.314817
 31
0.0
  0
LINE
  5
17E21
330
18CDE
100
AcDbEntity
  8
0
  6
Continuous
 62
    30
370
   106
100
AcDbLine
 10
9479.450901
 20
-14519.214817
 30
0.0
 11
9162.650901
 21
-14519.214817
 31
0.0
  0
LINE
  5
17E22
330
18CDE
100
AcDbEntity
  8
0
  6
Continuous
 62
    30
370
   106
100
AcDbLine
 10
9162.650901
 20
-14311.314817
 30
0.0
 11
9479.450901
 21
-14311.314817
 31
0.0
  0
LINE
  5
17E23
330
18CDE
100
AcDbEntity
  8
0
  6
Continuous
 62
    30
370
   106
100
AcDbLine
 10
9479.450901
 20
-14311.314817
 30
0.0
 11
9479.450901
 21
-14519.214817
 31
0.0
  0
LINE
  5
17E29
330
18CDE
100
AcDbEntity
  8
0
  6
Continuous
 62
    30
370
   106
100
AcDbLine
 10
9415.100901
 20
-14482.505687
 30
0.0
 11
9415.100901
 21
-14519.214817
 31
0.0
  0
LINE
  5
17E2A
330
18CDE
100
AcDbEntity
  8
0
  6
Continuous
 62
    30
370
    70
100
AcDbLine
 10
9462.818901
 20
-14490.227687
 30
0.0
 11
9462.818901
 21
-14519.214817
 31
0.0
  0
LINE
  5
17E2B
330
18CDE
100
AcDbEntity
  8
0
  6
Continuous
 62
    30
370
    70
100
AcDbLine
 10
9462.818901
 20
-14510.027687
 30
0.0
 11
9415.100901
 21
-14510.027687
 31
0.0
  0
LINE
  5
17E2C
330
18CDE
100
AcDbEntity
  8
0
  6
Continuous
 62
    30
370
    70
100
AcDbLine
 10
9479.450901
 20
-14490.227687
 30
0.0
 11
9462.818901
 21
-14490.227687
 31
0.0
  0
LINE
  5
17E2D
330
18CDE
100
AcDbEntity
  8
0
  6
Continuous
 62
    30
370
    70
100
AcDbLine
 10
9462.818901
 20
-14490.227687
 30
0.0
 11
9415.100901
 21
-14490.227687
 31
0.0
  0
LINE
  5
17E2E
330
18CDE
100
AcDbEntity
  8
0
  6
Continuous
 62
    30
370
    53
100
AcDbLine
 10
9479.450901
 20
-14493.197687
 30
0.0
 11
9462.818901
 21
-14493.197687
 31
0.0
  0
LINE
  5
17E2F
330
18CDE
100
AcDbEntity
  8
0
  6
Continuous
 62
    30
370
    53
100
AcDbLine
 10
9479.450901
 20
-14496.167687
 30
0.0
 11
9462.818901
 21
-14496.167687
 31
0.0
  0
LINE
  5
17E30
330
18CDE
100
AcDbEntity
  8
0
  6
Continuous
 62
    30
370
    53
100
AcDbLine
 10
9479.450901
 20
-14499.137687
 30
0.0
 11
9462.818901
 21
-14499.137687
 31
0.0
  0
LINE
  5
17E31
330
18CDE
100
AcDbEntity
  8
0
  6
Continuous
 62
    30
370
    53
100
AcDbLine
 10
9479.450901
 20
-14502.107687
 30
0.0
 11
9462.818901
 21
-14502.107687
 31
0.0
  0
LINE
  5
17E32
330
18CDE
100
AcDbEntity
  8
0
  6
Continuous
 62
    30
370
    53
100
AcDbLine
 10
9479.450901
 20
-14505.077687
 30
0.0
 11
9462.818901
 21
-14505.077687
 31
0.0
  0
LINE
  5
17E33
330
18CDE
100
AcDbEntity
  8
0
  6
Continuous
 62
    30
370
    53
100
AcDbLine
 10
9479.450901
 20
-14508.047687
 30
0.0
 11
9462.818901
 21
-14508.047687
 31
0.0
  0
LINE
  5
17E34
330
18CDE
100
AcDbEntity
  8
0
  6
Continuous
 62
    30
370
    53
100
AcDbLine
 10
9479.450901
 20
-14511.017687
 30
0.0
 11
9462.818901
 21
-14511.017687
 31
0.0
  0
LINE
  5
17E39
330
18CDE
100
AcDbEntity
  8
0
  6
Continuous
 62
    30
370
    70
100
AcDbLine
 10
9415.100901
 20
-14495.454817
 30
0.0
 11
9367.085901
 21
-14495.454817
 31
0.0
  0
LINE
  5
17E3A
330
18CDE
100
AcDbEntity
  8
0
  6
Continuous
 62
    30
370
    70
100
AcDbLine
 10
9367.085901
 20
-14495.454817
 30
0.0
 11
9367.085901
 21
-14519.214817
 31
0.0
  0
LINE
  5
17E3B
330
18CDE
100
AcDbEntity
  8
0
  6
Continuous
 62
    30
370
    70
100
AcDbLine
 10
9403.220901
 20
-14500.899817
 30
0.0
 11
9403.220901
 21
-14519.214817
 31
0.0
  0
LINE
  5
17E3C
330
18CDE
100
AcDbEntity
  8
0
  6
Continuous
 62
    30
370
    70
100
AcDbLine
 10
9415.100901
 20
-14500.899817
 30
0.0
 11
9403.220901
 21
-14500.899817
 31
0.0
  0
LINE
  5
17E3D
330
18CDE
100
AcDbEntity
  8
0
  6
Continuous
 62
    30
370
    70
100
AcDbLine
 10
9403.220901
 20
-14500.899817
 30
0.0
 11
9367.085901
 21
-14500.899817
 31
0.0
  0
LINE
  5
17E3E
330
18CDE
100
AcDbEntity
  8
0
  6
Continuous
 62
    30
370
    53
100
AcDbLine
 10
9415.100901
 20
-14516.937817
 30
0.0
 11
9403.220901
 21
-14516.937817
 31
0.0
  0
LINE
  5
17E3F
330
18CDE
100
AcDbEntity
  8
0
  6
Continuous
 62
    30
370
    53
100
AcDbLine
 10
9415.100901
 20
-14514.660817
 30
0.0
 11
9403.220901
 21
-14514.660817
 31
0.0
  0
LINE
  5
17E40
330
18CDE
100
AcDbEntity
  8
0
  6
Continuous
 62
    30
370
    53
100
AcDbLine
 10
9415.100901
 20
-14512.383817
 30
0.0
 11
9403.220901
 21
-14512.383817
 31
0.0
  0
LINE
  5
17E41
330
18CDE
100
AcDbEntity
  8
0
  6
Continuous
 62
    30
370
    53
100
AcDbLine
 10
9415.100901
 20
-14510.106817
 30
0.0
 11
9403.220901
 21
-14510.106817
 31
0.0
  0
LINE
  5
17E42
330
18CDE
100
AcDbEntity
  8
0
  6
Continuous
 62
    30
370
    53
100
AcDbLine
 10
9415.100901
 20
-14507.829817
 30
0.0
 11
9403.220901
 21
-14507.829817
 31
0.0
  0
LINE
  5
17E43
330
18CDE
100
AcDbEntity
  8
0
  6
Continuous
 62
    30
370
    53
100
AcDbLine
 10
9415.100901
 20
-14505.552817
 30
0.0
 11
9403.220901
 21
-14505.552817
 31
0.0
  0
LINE
  5
17E44
330
18CDE
100
AcDbEntity
  8
0
  6
Continuous
 62
    30
370
    53
100
AcDbLine
 10
9409.160901
 20
-14505.552817
 30
0.0
 11
9409.160901
 21
-14519.214817
 31
0.0
  0
MTEXT
  5
17E45
330
18CDE
100
AcDbEntity
  8
0
  6
Continuous
 62
     5
370
    40
100
AcDbMText
 10
9447.346447
 20
-14489.560071
 30
0.0
 40
1.485
 41
0.0
 71
     8
 72
     1
  1
WEST VIRGINIA DEPARTMENT OF TRANSPORTATION\PDIVISION OF HIGHWAYS\PENGINEERING DIVISION
  7
Style 1
 73
     2
 44
1.0
  0
TEXT
  5
17E4D
330
18CDE
100
AcDbEntity
  8
0
  6
Continuous
 62
     5
370
    30
100
AcDbText
 10
9463.935738
 20
-14503.881672
 30
0.0
 40
0.7425
  1
DATE:
  7
Style 2 - FS Sheet
 11
9463.935738
 21
-14503.510422
 31
0.0
100
AcDbText
 73
     2
  0
TEXT
  5
17E4E
330
18CDE
100
AcDbEntity
  8
0
  6
Continuous
 62
     5
370
    30
100
AcDbText
 10
9463.935738
 20
-14506.867745
 30
0.0
 40
0.7425
  1
SCALE:
  7
Style 2 - FS Sheet
 11
9463.935738
 21
-14506.496495
 31
0.0
100
AcDbText
 73
     2
  0
MTEXT
  5
17E4F
330
18CDE
100
AcDbEntity
  8
0
  6
Continuous
 62
     5
370
    30
100
AcDbMText
 10
9463.935738
 20
-14509.482567
 30
0.0
 40
0.7425
 41
0.0
 71
     4
 72
     1
  1
SHEET NO    OF
  7
Style 2 - FS Sheet
 73
     2
 44
1.4
  0
TEXT
  5
17E51
330
18CDE
100
AcDbEntity
  8
0
  6
Continuous
 62
     5
370
    30
100
AcDbText
 10
9466.977108
 20
-14512.342211
 30
0.0
 40
0.7425
  1
BRIDGE NUMBER
  7
Style 2 - FS Sheet
 11
9466.977108
 21
-14511.970961
 31
0.0
100
AcDbText
 73
     2
  0
TEXT
  5
17E52
330
18CDE
100
AcDbEntity
  8
0
  6
Continuous
 62
     5
370
    30
100
AcDbText
 10
9403.827205
 20
-14502.112148
 30
0.0
 40
0.7425
  1
PREPARED:
  7
Style 2 - FS Sheet
 11
9403.827205
 21
-14501.740898
 31
0.0
100
AcDbText
 73
     2
  0
TEXT
  5
17E53
330
18CDE
100
AcDbEntity
  8
0
  6
Continuous
 62
     5
370
    30
100
AcDbText
 10
9403.827205
 20
-14506.435351
 30
0.0
 40
0.495
  1
REVISED:
  7
Style 2 - FS Sheet
 11
9403.827205
 21
-14506.187851
 31
0.0
100
AcDbText
 73
     2
  0
TEXT
  5
17E54
330
18CDE
100
AcDbEntity
  8
0
  6
DGN Style 1
 62
     5
370
    30
100
AcDbText
 10
9380.781282
 20
-14499.568619
 30
0.0
 40
0.556875
  1
DIRECTOR, ENGINEERING DIVISION
  7
Style 1
100
AcDbText
  0
MTEXT
  5
17E55
330
18CDE
100
AcDbEntity
  8
0
  6
Continuous
 62
     5
370
    40
100
AcDbMText
 10
9385.18984
 20
-14506.309837
 30
0.0
 40
0.86625
 41
0.0
 71
     8
 72
     1
  1
WEST VIRGINIA DEPARTMENT OF TRANSPORTATION\PDIVISION OF HIGHWAYS\PENGINEERING DIVISION
  7
Style 1
 73
     2
 44
1.285714
  0
LINE
  5
17E5C
330
18CDE
100
AcDbEntity
  8
0
  6
Continuous
 62
    30
370
    70
100
AcDbLine
 10
9413.665401
 20
-14321.214817
 30
0.0
 11
9479.450901
 21
-14321.214817
 31
0.0
  0
LINE
  5
17E5D
330
18CDE
100
AcDbEntity
  8
0
  6
Continuous
 62
    30
370
    70
100
AcDbLine
 10
9413.665401
 20
-14316.264817
 30
0.0
 11
9479.450901
 21
-14316.264817
 31
0.0
  0
LINE
  5
17E5E
330
18CDE
100
AcDbEntity
  8
0
  6
Continuous
 62
    30
370
    70
100
AcDbLine
 10
9467.273901
 20
-14311.314817
 30
0.0
 11
9467.273901
 21
-14321.214817
 31
0.0
  0
LINE
  5
17E5F
330
18CDE
100
AcDbEntity
  8
0
  6
Continuous
 62
    30
370
    70
100
AcDbLine
 10
9473.362401
 20
-14311.314817
 30
0.0
 11
9473.362401
 21
-14321.214817
 31
0.0
  0
LINE
  5
17E60
330
18CDE
100
AcDbEntity
  8
0
  6
Continuous
 62
    30
370
    70
100
AcDbLine
 10
9451.433901
 20
-14311.314817
 30
0.0
 11
9451.433901
 21
-14321.214817
 31
0.0
  0
LINE
  5
17E61
330
18CDE
100
AcDbEntity
  8
0
  6
Continuous
 62
    30
370
    70
100
AcDbLine
 10
9445.345401
 20
-14311.314817
 30
0.0
 11
9445.345401
 21
-14321.214817
 31
0.0
  0
LINE
  5
17E62
330
18CDE
100
AcDbEntity
  8
0
  6
Continuous
 62
    30
370
    70
100
AcDbLine
 10
9429.505401
 20
-14311.314817
 30
0.0
 11
9429.505401
 21
-14321.214817
 31
0.0
  0
LINE
  5
17E63
330
18CDE
100
AcDbEntity
  8
0
  6
Continuous
 62
    30
370
    70
100
AcDbLine
 10
9413.665401
 20
-14311.314817
 30
0.0
 11
9413.665401
 21
-14321.214817
 31
0.0
  0
MTEXT
  5
17E64
330
18CDE
100
AcDbEntity
  8
0
  6
Continuous
 62
     5
370
    30
100
AcDbMText
 10
9421.356557
 20
-14313.563035
 30
0.0
 40
0.792
 41
0.0
 71
     5
 72
     1
  1
STATE\PPROJECT NUMBER
  7
Style 2 - FS Sheet
 73
     2
 44
1.5
  0
MTEXT
  5
17E67
330
18CDE
100
AcDbEntity
  8
0
  6
Continuous
 62
     5
370
    30
100
AcDbMText
 10
9437.392872
 20
-14313.563035
 30
0.0
 40
0.792
 41
0.0
 71
     5
 72
     1
  1
FEDERAL \PPROJECT NUMBER
  7
Style 2 - FS Sheet
 73
     2
 44
1.5
  0
MTEXT
  5
17E6A
330
18CDE
100
AcDbEntity
  8
0
  6
Continuous
 62
     5
370
    30
100
AcDbMText
 10
9448.452399
 20
-14313.777989
 30
0.0
 40
0.792
 41
0.0
 71
     5
 72
     1
  1
STATE\PDIST. \PNO.
  7
Style 2 - FS Sheet
 73
     2
 44
1.275
  0
TEXT
  5
17E6E
330
18CDE
100
AcDbEntity
  8
0
  6
Continuous
 62
     5
370
    30
100
AcDbText
 10
9456.996049
 20
-14314.235523
 30
0.0
 40
0.792
  1
COUNTY
  7
Style 2 - FS Sheet
 72
     1
 11
9459.290934
 21
-14313.839523
 31
0.0
100
AcDbText
 73
     2
  0
MTEXT
  5
17E6F
330
18CDE
100
AcDbEntity
  8
0
  6
Continuous
 62
     5
370
    30
100
AcDbMText
 10
9470.571455
 20
-14313.839523
 30
0.0
 40
0.792
 41
0.0
 71
     5
 72
     1
  1
SHEET \PNO.
  7
Style 2 - FS Sheet
 73
     2
 44
1.5
  0
MTEXT
  5
17E72
330
18CDE
100
AcDbEntity
  8
0
  6
Continuous
 62
     5
370
    30
100
AcDbMText
 10
9476.377707
 20
-14313.839523
 30
0.0
 40
0.792
 41
0.0
 71
     5
 72
     1
  1
TOTAL \PSHEETS
  7
Style 2 - FS Sheet
 73
     2
 44
1.5
  0
LINE
  5
17E75
330
18CDE
100
AcDbEntity
  8
0
  6
DGN Style 1
 62
     6
370
    30
100
AcDbLine
 10
9373.82406
 20
-14498.588933
 30
0.0
 11
9400.826486
 21
-14498.588933
 31
0.0
  0
TEXT
  5
17E76
330
18CDE
100
AcDbEntity
  8
0
  6
Continuous
 62
     5
370
    30
100
AcDbText
 10
9368.19073
 20
-14498.55462
 30
0.0
 40
0.556875
  1
APPROVED:                                                  
  7
Style 1
100
AcDbText
  0
LINE
  5
17E77
330
18CDE
100
AcDbEntity
  8
0
  6
DGN Style 1
 62
     6
370
    30
100
AcDbLine
 10
9404.525706
 20
-14498.588933
 30
0.0
 11
9413.670185
 21
-14498.588933
 31
0.0
  0
TEXT
  5
17E78
330
18CDE
100
AcDbEntity
  8
0
  6
Continuous
 62
     5
370
    30
100
AcDbText
 10
9401.915596
 20
-14498.588933
 30
0.0
 40
0.556875
  1
DATE:
  7
Style 1
100
AcDbText
  0
TEXT
  5
17E80
330
18CDE
100
AcDbEntity
  8
0
  6
Continuous
 62
     5
370
    40
100
AcDbText
 10
9370.604359
 20
-14517.390519
 30
0.0
 40
1.36125
  1
STANDARD SHEET BR-B33B
 51
10.000004
  7
Style 1
 72
     1
 11
9385.100791
 21
-14517.390519
 31
0.0
100
AcDbText
  0
LINE
  5
18086
330
18CDE
100
AcDbEntity
  8
0
  6
Continuous
 62
     6
370
    40
100
AcDbLine
 10
9174.09023
 20
-14324.027307
 30
0.0
 11
9409.09023
 21
-14324.027307
 31
0.0
  0
LINE
  5
18089
330
18CDE
100
AcDbEntity
  8
0
  6
Continuous
 62
     6
370
    40
100
AcDbLine
 10
9174.09023
 20
-14328.027307
 30
0.0
 11
9409.09023
 21
-14328.027307
 31
0.0
  0
LINE
  5
1808A
330
18CDE
100
AcDbEntity
  8
0
  6
Continuous
 62
     6
370
    40
100
AcDbLine
 10
9174.09023
 20
-14332.027307
 30
0.0
 11
9409.09023
 21
-14332.027307
 31
0.0
  0
LINE
  5
18090
330
18CDE
100
AcDbEntity
  8
0
  6
Continuous
 62
     6
370
    40
100
AcDbLine
 10
9174.09023
 20
-14338.027307
 30
0.0
 11
9409.09023
 21
-14338.027307
 31
0.0
  0
LINE
  5
18092
330
18CDE
100
AcDbEntity
  8
0
  6
Continuous
 62
     6
370
    40
100
AcDbLine
 10
9174.09023
 20
-14374.027307
 30
0.0
 11
9409.09023
 21
-14374.027307
 31
0.0
  0
LINE
  5
1809F
330
18CDE
100
AcDbEntity
  8
0
  6
Continuous
 62
     6
370
    40
100
AcDbLine
 10
9174.09023
 20
-14380.027307
 30
0.0
 11
9409.09023
 21
-14380.027307
 31
0.0
  0
LINE
  5
180A0
330
18CDE
100
AcDbEntity
  8
0
  6
Continuous
 62
     6
370
    40
100
AcDbLine
 10
9174.09023
 20
-14386.027307
 30
0.0
 11
9409.09023
 21
-14386.027307
 31
0.0
  0
LINE
  5
180A1
330
18CDE
100
AcDbEntity
  8
0
  6
Continuous
 62
     6
370
    40
100
AcDbLine
 10
9174.09023
 20
-14392.027307
 30
0.0
 11
9409.09023
 21
-14392.027307
 31
0.0
  0
LINE
  5
180A8
330
18CDE
100
AcDbEntity
  8
0
  6
Continuous
 62
     6
370
    40
100
AcDbLine
 10
9174.09023
 20
-14396.027307
 30
0.0
 11
9409.09023
 21
-14396.027307
 31
0.0
  0
LINE
  5
180B7
330
18CDE
100
AcDbEntity
  8
0
  6
Continuous
 62
     6
370
    40
100
AcDbLine
 10
9174.09023
 20
-14438.027307
 30
0.0
 11
9409.09023
 21
-14438.027307
 31
0.0
  0
LINE
  5
180CD
330
18CDE
100
AcDbEntity
  8
0
  6
Continuous
 62
     6
370
    40
100
AcDbLine
 10
9174.09023
 20
-14458.027307
 30
0.0
 11
9409.09023
 21
-14458.027307
 31
0.0
  0
LINE
  5
180D8
330
18CDE
100
AcDbEntity
  8
0
  6
Continuous
 62
     6
370
    40
100
AcDbLine
 10
9195.09023
 20
-14426.027307
 30
0.0
 11
9195.09023
 21
-14458.027307
 31
0.0
  0
LINE
  5
180BD
330
18CDE
100
AcDbEntity
  8
0
  6
Continuous
 62
     6
370
    40
100
AcDbLine
 10
9195.09023
 20
-14430.027307
 30
0.0
 11
9409.09023
 21
-14430.027307
 31
0.0
  0
LINE
  5
180D9
330
18CDE
100
AcDbEntity
  8
0
  6
Continuous
 62
     6
370
    40
100
AcDbLine
 10
9195.09023
 20
-14434.027307
 30
0.0
 11
9409.09023
 21
-14434.027307
 31
0.0
  0
LINE
  5
180C5
330
18CDE
100
AcDbEntity
  8
0
  6
Continuous
 62
     6
370
    40
100
AcDbLine
 10
9195.09023
 20
-14442.027307
 30
0.0
 11
9409.09023
 21
-14442.027307
 31
0.0
  0
LINE
  5
180CC
330
18CDE
100
AcDbEntity
  8
0
  6
Continuous
 62
     6
370
    40
100
AcDbLine
 10
9195.09023
 20
-14450.027307
 30
0.0
 11
9409.09023
 21
-14450.027307
 31
0.0
  0
LINE
  5
180DB
330
18CDE
100
AcDbEntity
  8
0
  6
Continuous
 62
     6
370
    70
100
AcDbLine
 10
9174.09023
 20
-14464.027307
 30
0.0
 11
9409.09023
 21
-14464.027307
 31
0.0
  0
LINE
  5
180DF
330
18CDE
100
AcDbEntity
  8
0
  6
Continuous
 62
     6
370
    70
100
AcDbLine
 10
9174.09023
 20
-14318.027307
 30
0.0
 11
9409.09023
 21
-14318.027307
 31
0.0
  0
MTEXT
  5
17E7C
330
18CDE
100
AcDbEntity
  8
0
  6
Continuous
 62
     5
370
    40
100
AcDbMText
 10
9386.104054
 20
-14513.445388
 30
0.0
 40
0.86625
 41
0.0
 71
     8
 72
     1
  1
DESIGN TABLE FOR 33"\P\PPRESTRESSED BOX BEAM
  7
Style 1
 73
     2
 44
1.285714
  0
MTEXT
  5
17E79
330
18CDE
100
AcDbEntity
  8
0
  6
Continuous
 62
     5
370
    40
100
AcDbMText
 10
9439.715372
 20
-14517.952051
 30
0.0
 40
1.485
 41
0.0
 71
     8
 72
     1
  1
DESIGN TABLE FOR 33"\P\PPRESTRESSED BOX BEAM
  7
Style 1
 73
     2
 44
1.0
  0
LINE
  5
18087
330
18CDE
100
AcDbEntity
  8
0
  6
Continuous
 62
     6
370
    70
100
AcDbLine
 10
9174.09023
 20
-14318.027307
 30
0.0
 11
9174.09023
 21
-14464.027307
 31
0.0
  0
LINE
  5
185A5
330
18CDE
100
AcDbEntity
  8
0
  6
Continuous
 62
     6
370
    40
100
AcDbLine
 10
9229.09023
 20
-14464.027307
 30
0.0
 11
9229.09023
 21
-14324.027307
 31
0.0
  0
LINE
  5
185A6
330
18CDE
100
AcDbEntity
  8
0
  6
Continuous
 62
     6
370
    40
100
AcDbLine
 10
9241.09023
 20
-14464.027307
 30
0.0
 11
9241.09023
 21
-14324.027307
 31
0.0
  0
LINE
  5
185A7
330
18CDE
100
AcDbEntity
  8
0
  6
Continuous
 62
     6
370
    40
100
AcDbLine
 10
9253.09023
 20
-14464.027307
 30
0.0
 11
9253.09023
 21
-14324.027307
 31
0.0
  0
LINE
  5
185A8
330
18CDE
100
AcDbEntity
  8
0
  6
Continuous
 62
     6
370
    40
100
AcDbLine
 10
9265.09023
 20
-14464.027307
 30
0.0
 11
9265.09023
 21
-14324.027307
 31
0.0
  0
LINE
  5
185A9
330
18CDE
100
AcDbEntity
  8
0
  6
Continuous
 62
     6
370
    40
100
AcDbLine
 10
9277.09023
 20
-14464.027307
 30
0.0
 11
9277.09023
 21
-14324.027307
 31
0.0
  0
LINE
  5
185AA
330
18CDE
100
AcDbEntity
  8
0
  6
Continuous
 62
     6
370
    40
100
AcDbLine
 10
9289.09023
 20
-14464.027307
 30
0.0
 11
9289.09023
 21
-14324.027307
 31
0.0
  0
LINE
  5
185AB
330
18CDE
100
AcDbEntity
  8
0
  6
Continuous
 62
     6
370
    40
100
AcDbLine
 10
9301.09023
 20
-14464.027307
 30
0.0
 11
9301.09023
 21
-14324.027307
 31
0.0
  0
LINE
  5
185AC
330
18CDE
100
AcDbEntity
  8
0
  6
Continuous
 62
     6
370
    40
100
AcDbLine
 10
9313.09023
 20
-14464.027307
 30
0.0
 11
9313.09023
 21
-14324.027307
 31
0.0
  0
LINE
  5
185AD
330
18CDE
100
AcDbEntity
  8
0
  6
Continuous
 62
     6
370
    40
100
AcDbLine
 10
9325.09023
 20
-14464.027307
 30
0.0
 11
9325.09023
 21
-14324.027307
 31
0.0
  0
LINE
  5
185AE
330
18CDE
100
AcDbEntity
  8
0
  6
Continuous
 62
     6
370
    40
100
AcDbLine
 10
9337.09023
 20
-14464.027307
 30
0.0
 11
9337.09023
 21
-14324.027307
 31
0.0
  0
LINE
  5
185AF
330
18CDE
100
AcDbEntity
  8
0
  6
Continuous
 62
     6
370
    40
100
AcDbLine
 10
9349.09023
 20
-14464.027307
 30
0.0
 11
9349.09023
 21
-14324.027307
 31
0.0
  0
LINE
  5
185B0
330
18CDE
100
AcDbEntity
  8
0
  6
Continuous
 62
     6
370
    40
100
AcDbLine
 10
9361.09023
 20
-14464.027307
 30
0.0
 11
9361.09023
 21
-14324.027307
 31
0.0
  0
LINE
  5
185B1
330
18CDE
100
AcDbEntity
  8
0
  6
Continuous
 62
     6
370
    40
100
AcDbLine
 10
9373.09023
 20
-14464.027307
 30
0.0
 11
9373.09023
 21
-14324.027307
 31
0.0
  0
LINE
  5
185B2
330
18CDE
100
AcDbEntity
  8
0
  6
Continuous
 62
     6
370
    40
100
AcDbLine
 10
9385.09023
 20
-14464.027307
 30
0.0
 11
9385.09023
 21
-14324.027307
 31
0.0
  0
LINE
  5
185B3
330
18CDE
100
AcDbEntity
  8
0
  6
Continuous
 62
     6
370
    40
100
AcDbLine
 10
9397.09023
 20
-14464.027307
 30
0.0
 11
9397.09023
 21
-14324.027307
 31
0.0
  0
LINE
  5
185B4
330
18CDE
100
AcDbEntity
  8
0
  6
Continuous
 62
     6
370
    70
100
AcDbLine
 10
9409.09023
 20
-14464.027307
 30
0.0
 11
9409.09023
 21
-14318.027307
 31
0.0
  0
LINE
  5
185B9
330
18CDE
100
AcDbEntity
  8
0
  6
Continuous
 62
     6
370
    40
100
AcDbLine
 10
9174.09023
 20
-14368.027307
 30
0.0
 11
9409.09023
 21
-14368.027307
 31
0.0
  0
LINE
  5
185B5
330
18CDE
100
AcDbEntity
  8
0
  6
Continuous
 62
     6
370
    40
100
AcDbLine
 10
9206.374695
 20
-14344.027307
 30
0.0
 11
9409.09023
 21
-14344.027307
 31
0.0
  0
LINE
  5
185B6
330
18CDE
100
AcDbEntity
  8
0
  6
Continuous
 62
     6
370
    40
100
AcDbLine
 10
9206.374695
 20
-14350.027307
 30
0.0
 11
9409.09023
 21
-14350.027307
 31
0.0
  0
LINE
  5
185B7
330
18CDE
100
AcDbEntity
  8
0
  6
Continuous
 62
     6
370
    40
100
AcDbLine
 10
9206.374695
 20
-14356.027307
 30
0.0
 11
9409.09023
 21
-14356.027307
 31
0.0
  0
LINE
  5
185B8
330
18CDE
100
AcDbEntity
  8
0
  6
Continuous
 62
     6
370
    40
100
AcDbLine
 10
9206.374695
 20
-14362.027307
 30
0.0
 11
9409.09023
 21
-14362.027307
 31
0.0
  0
LINE
  5
185BB
330
18CDE
100
AcDbEntity
  8
0
  6
Continuous
 62
     6
370
    40
100
AcDbLine
 10
9206.374695
 20
-14368.027307
 30
0.0
 11
9206.374695
 21
-14338.027307
 31
0.0
  0
LINE
  5
185CF
330
18CDE
100
AcDbEntity
  8
0
  6
Continuous
 62
     6
370
    40
100
AcDbLine
 10
9174.09023
 20
-14420.027307
 30
0.0
 11
9409.09023
 21
-14420.027307
 31
0.0
  0
LINE
  5
185D0
330
18CDE
100
AcDbEntity
  8
0
  6
Continuous
 62
     6
370
    40
100
AcDbLine
 10
9174.09023
 20
-14426.027307
 30
0.0
 11
9409.09023
 21
-14426.027307
 31
0.0
  0
LINE
  5
185C2
330
18CDE
100
AcDbEntity
  8
0
  6
Continuous
 62
     6
370
    40
100
AcDbLine
 10
9265.09023
 20
-14426.027307
 30
0.0
 11
9265.09023
 21
-14414.027307
 31
0.0
  0
LINE
  5
18608
330
18CDE
100
AcDbEntity
  8
0
  6
Continuous
 62
     6
370
    40
100
AcDbLine
 10
9174.09023
 20
-14414.027307
 30
0.0
 11
9409.09023
 21
-14414.027307
 31
0.0
  0
LINE
  5
18609
330
18CDE
100
AcDbEntity
  8
0
  6
Continuous
 62
     6
370
    40
100
AcDbLine
 10
9206.374695
 20
-14396.027307
 30
0.0
 11
9206.374695
 21
-14414.027307
 31
0.0
  0
LINE
  5
180AC
330
18CDE
100
AcDbEntity
  8
0
  6
Continuous
 62
     6
370
    40
100
AcDbLine
 10
9206.374695
 20
-14405.027307
 30
0.0
 11
9409.09023
 21
-14405.027307
 31
0.0
  0
LWPOLYLINE
  5
18655
330
18CDE
100
AcDbEntity
  8
0
 62
     6
370
    40
100
AcDbPolyline
 90
        4
 70
   129
 43
0.0
 10
9412.087301
 20
-14324.508155
 10
9478.234342
 20
-14324.508155
 10
9478.234342
 20
-14338.649012
 10
9412.087301
 20
-14338.649012
  0
LINE
  5
189EC
330
18CDE
100
AcDbEntity
  8
0
 62
     6
370
    40
100
AcDbLine
 10
9219.0
 20
-14353.0
 30
0.0
 11
9227.0
 21
-14353.0
 31
0.0
  0
LINE
  5
189ED
330
18CDE
100
AcDbEntity
  8
0
 62
     6
370
    40
100
AcDbLine
 10
9231.0
 20
-14353.0
 30
0.0
 11
9239.0
 21
-14353.0
 31
0.0
  0
LINE
  5
189EE
330
18CDE
100
AcDbEntity
  8
0
 62
     6
370
    40
100
AcDbLine
 10
9243.0
 20
-14353.0
 30
0.0
 11
9251.0
 21
-14353.0
 31
0.0
  0
LINE
  5
189EF
330
18CDE
100
AcDbEntity
  8
0
 62
     6
370
    40
100
AcDbLine
 10
9255.0
 20
-14353.0
 30
0.0
 11
9263.0
 21
-14353.0
 31
0.0
  0
LINE
  5
189F0
330
18CDE
100
AcDbEntity
  8
0
 62
     6
370
    40
100
AcDbLine
 10
9267.0
 20
-14353.0
 30
0.0
 11
9275.0
 21
-14353.0
 31
0.0
  0
LINE
  5
189F1
330
18CDE
100
AcDbEntity
  8
0
 62
     6
370
    40
100
AcDbLine
 10
9279.0
 20
-14353.0
 30
0.0
 11
9287.0
 21
-14353.0
 31
0.0
  0
LINE
  5
189F2
330
18CDE
100
AcDbEntity
  8
0
 62
     6
370
    40
100
AcDbLine
 10
9291.0
 20
-14353.0
 30
0.0
 11
9299.0
 21
-14353.0
 31
0.0
  0
LINE
  5
189F3
330
18CDE
100
AcDbEntity
  8
0
 62
     6
370
    40
100
AcDbLine
 10
9303.0
 20
-14353.0
 30
0.0
 11
9311.0
 21
-14353.0
 31
0.0
  0
LINE
  5
189F4
330
18CDE
100
AcDbEntity
  8
0
 62
     6
370
    40
100
AcDbLine
 10
9315.0
 20
-14353.0
 30
0.0
 11
9323.0
 21
-14353.0
 31
0.0
  0
LINE
  5
189F5
330
18CDE
100
AcDbEntity
  8
0
 62
     6
370
    40
100
AcDbLine
 10
9327.0
 20
-14353.0
 30
0.0
 11
9335.0
 21
-14353.0
 31
0.0
  0
LINE
  5
189F6
330
18CDE
100
AcDbEntity
  8
0
 62
     6
370
    40
100
AcDbLine
 10
9339.0
 20
-14353.0
 30
0.0
 11
9347.0
 21
-14353.0
 31
0.0
  0
LINE
  5
18A02
330
18CDE
100
AcDbEntity
  8
0
 62
     6
370
    40
100
AcDbLine
 10
9219.0
 20
-14394.0
 30
0.0
 11
9227.0
 21
-14394.0
 31
0.0
  0
LINE
  5
18A03
330
18CDE
100
AcDbEntity
  8
0
 62
     6
370
    40
100
AcDbLine
 10
9219.0
 20
-14401.0
 30
0.0
 11
9227.0
 21
-14401.0
 31
0.0
  0
LINE
  5
18A04
330
18CDE
100
AcDbEntity
  8
0
 62
     6
370
    40
100
AcDbLine
 10
9219.0
 20
-14410.0
 30
0.0
 11
9227.0
 21
-14410.0
 31
0.0
  0
LINE
  5
18A05
330
18CDE
100
AcDbEntity
  8
0
 62
     6
370
    40
100
AcDbLine
 10
9231.0
 20
-14394.0
 30
0.0
 11
9239.0
 21
-14394.0
 31
0.0
  0
LINE
  5
18A06
330
18CDE
100
AcDbEntity
  8
0
 62
     6
370
    40
100
AcDbLine
 10
9231.0
 20
-14401.0
 30
0.0
 11
9239.0
 21
-14401.0
 31
0.0
  0
LINE
  5
18A07
330
18CDE
100
AcDbEntity
  8
0
 62
     6
370
    40
100
AcDbLine
 10
9231.0
 20
-14410.0
 30
0.0
 11
9239.0
 21
-14410.0
 31
0.0
  0
LINE
  5
18A08
330
18CDE
100
AcDbEntity
  8
0
 62
     6
370
    40
100
AcDbLine
 10
9243.0
 20
-14394.0
 30
0.0
 11
9251.0
 21
-14394.0
 31
0.0
  0
LINE
  5
18A09
330
18CDE
100
AcDbEntity
  8
0
 62
     6
370
    40
100
AcDbLine
 10
9243.0
 20
-14401.0
 30
0.0
 11
9251.0
 21
-14401.0
 31
0.0
  0
LINE
  5
18A0A
330
18CDE
100
AcDbEntity
  8
0
 62
     6
370
    40
100
AcDbLine
 10
9243.0
 20
-14410.0
 30
0.0
 11
9251.0
 21
-14410.0
 31
0.0
  0
LINE
  5
18A0B
330
18CDE
100
AcDbEntity
  8
0
 62
     6
370
    40
100
AcDbLine
 10
9255.0
 20
-14394.0
 30
0.0
 11
9263.0
 21
-14394.0
 31
0.0
  0
LINE
  5
18A0C
330
18CDE
100
AcDbEntity
  8
0
 62
     6
370
    40
100
AcDbLine
 10
9255.0
 20
-14401.0
 30
0.0
 11
9263.0
 21
-14401.0
 31
0.0
  0
LINE
  5
18A0D
330
18CDE
100
AcDbEntity
  8
0
 62
     6
370
    40
100
AcDbLine
 10
9255.0
 20
-14410.0
 30
0.0
 11
9263.0
 21
-14410.0
 31
0.0
  0
LINE
  5
18A0E
330
18CDE
100
AcDbEntity
  8
0
 62
     6
370
    40
100
AcDbLine
 10
9267.0
 20
-14394.0
 30
0.0
 11
9275.0
 21
-14394.0
 31
0.0
  0
LINE
  5
18A0F
330
18CDE
100
AcDbEntity
  8
0
 62
     6
370
    40
100
AcDbLine
 10
9267.0
 20
-14401.0
 30
0.0
 11
9275.0
 21
-14401.0
 31
0.0
  0
LINE
  5
18A10
330
18CDE
100
AcDbEntity
  8
0
 62
     6
370
    40
100
AcDbLine
 10
9267.0
 20
-14410.0
 30
0.0
 11
9275.0
 21
-14410.0
 31
0.0
  0
LINE
  5
18A11
330
18CDE
100
AcDbEntity
  8
0
 62
     6
370
    40
100
AcDbLine
 10
9279.0
 20
-14394.0
 30
0.0
 11
9287.0
 21
-14394.0
 31
0.0
  0
LINE
  5
18A12
330
18CDE
100
AcDbEntity
  8
0
 62
     6
370
    40
100
AcDbLine
 10
9279.0
 20
-14401.0
 30
0.0
 11
9287.0
 21
-14401.0
 31
0.0
  0
LINE
  5
18A13
330
18CDE
100
AcDbEntity
  8
0
 62
     6
370
    40
100
AcDbLine
 10
9279.0
 20
-14410.0
 30
0.0
 11
9287.0
 21
-14410.0
 31
0.0
  0
LINE
  5
18A14
330
18CDE
100
AcDbEntity
  8
0
 62
     6
370
    40
100
AcDbLine
 10
9291.0
 20
-14394.0
 30
0.0
 11
9299.0
 21
-14394.0
 31
0.0
  0
LINE
  5
18A15
330
18CDE
100
AcDbEntity
  8
0
 62
     6
370
    40
100
AcDbLine
 10
9291.0
 20
-14401.0
 30
0.0
 11
9299.0
 21
-14401.0
 31
0.0
  0
LINE
  5
18A16
330
18CDE
100
AcDbEntity
  8
0
 62
     6
370
    40
100
AcDbLine
 10
9291.0
 20
-14410.0
 30
0.0
 11
9299.0
 21
-14410.0
 31
0.0
  0
LINE
  5
18A17
330
18CDE
100
AcDbEntity
  8
0
 62
     6
370
    40
100
AcDbLine
 10
9303.0
 20
-14394.0
 30
0.0
 11
9311.0
 21
-14394.0
 31
0.0
  0
LINE
  5
18A18
330
18CDE
100
AcDbEntity
  8
0
 62
     6
370
    40
100
AcDbLine
 10
9303.0
 20
-14401.0
 30
0.0
 11
9311.0
 21
-14401.0
 31
0.0
  0
LINE
  5
18A19
330
18CDE
100
AcDbEntity
  8
0
 62
     6
370
    40
100
AcDbLine
 10
9303.0
 20
-14410.0
 30
0.0
 11
9311.0
 21
-14410.0
 31
0.0
  0
LINE
  5
18A1A
330
18CDE
100
AcDbEntity
  8
0
 62
     6
370
    40
100
AcDbLine
 10
9315.0
 20
-14394.0
 30
0.0
 11
9323.0
 21
-14394.0
 31
0.0
  0
LINE
  5
18A1B
330
18CDE
100
AcDbEntity
  8
0
 62
     6
370
    40
100
AcDbLine
 10
9315.0
 20
-14401.0
 30
0.0
 11
9323.0
 21
-14401.0
 31
0.0
  0
LINE
  5
18A1C
330
18CDE
100
AcDbEntity
  8
0
 62
     6
370
    40
100
AcDbLine
 10
9315.0
 20
-14410.0
 30
0.0
 11
9323.0
 21
-14410.0
 31
0.0
  0
LINE
  5
18A1D
330
18CDE
100
AcDbEntity
  8
0
 62
     6
370
    40
100
AcDbLine
 10
9327.0
 20
-14394.0
 30
0.0
 11
9335.0
 21
-14394.0
 31
0.0
  0
LINE
  5
18A1E
330
18CDE
100
AcDbEntity
  8
0
 62
     6
370
    40
100
AcDbLine
 10
9327.0
 20
-14401.0
 30
0.0
 11
9335.0
 21
-14401.0
 31
0.0
  0
LINE
  5
18A1F
330
18CDE
100
AcDbEntity
  8
0
 62
     6
370
    40
100
AcDbLine
 10
9327.0
 20
-14410.0
 30
0.0
 11
9335.0
 21
-14410.0
 31
0.0
  0
LINE
  5
18A20
330
18CDE
100
AcDbEntity
  8
0
 62
     6
370
    40
100
AcDbLine
 10
9339.0
 20
-14394.0
 30
0.0
 11
9347.0
 21
-14394.0
 31
0.0
  0
LINE
  5
18A21
330
18CDE
100
AcDbEntity
  8
0
 62
     6
370
    40
100
AcDbLine
 10
9339.0
 20
-14401.0
 30
0.0
 11
9347.0
 21
-14401.0
 31
0.0
  0
LINE
  5
18A22
330
18CDE
100
AcDbEntity
  8
0
 62
     6
370
    40
100
AcDbLine
 10
9339.0
 20
-14410.0
 30
0.0
 11
9347.0
 21
-14410.0
 31
0.0
  0
TEXT
  5
18A9F
330
18CDE
100
AcDbEntity
  8
0
  6
Continuous
 62
     5
370
    30
100
AcDbText
 10
9168.892666
 20
-14478.565416
 30
0.0
 40
1.125
  1
FOR ADDITIONAL DIAPHRAGMS, ADD 497 LBS/DIAPHRAGM.
  7
Style-gen_eng
 11
9168.892666
 21
-14477.440416
 31
0.0
100
AcDbText
 73
     3
  0
TEXT
  5
18A9E
330
18CDE
100
AcDbEntity
  8
0
  6
Continuous
 62
     5
370
    30
100
AcDbText
 10
9168.893778
 20
-14481.565416
 30
0.0
 40
1.125
  1
FOR SKEW ADD 33 LBS/DEGREE OF SKEW/END.
  7
Style-gen_eng
 11
9168.893778
 21
-14480.440416
 31
0.0
100
AcDbText
 73
     3
  0
MTEXT
  5
18A91
330
18CDE
100
AcDbEntity
  8
0
  6
Continuous
 62
     5
370
    30
100
AcDbMText
 10
9168.907083
 20
-14498.882727
 30
0.0
 40
1.125
 41
0.0
 71
     1
 72
     1
  3
PREDICTED DESIGN CAMBER VALUES LISTED IN THE TABLE ARE BASED ON EMPIRICAL FORMULAS\PAND AS SUCH ARE APPROXIMATE.  FOR MEMBERS WITH SPAN-TO-DEPTH RATIOS AT OR EXCEEDING 25, \PTHE TOLERANCE VALUES LISTED IN APPENDIX B OF PCI MANUAL FOR QUALITY CONTROL,
  3
 MNL-116, MAY \PNOT APPLY.\PMEASUREMENT OF CAMBER FOR COMPARISON TO PREDICTED DESIGN VALUES SHOULD BE COMPLETED \PWITHIN 72 HOURS OF RELEASE.  ADDITIONALLY, CAMBER SHOULD BE EVALUATED UNDER CONDITIONS \PTHAT MINIMIZE THE EFFECT OF TEMPERATURE VARIATI
  1
ON.
  7
Style-gen_eng
 73
     2
 44
1.133333
  0
MTEXT
  5
181A0
330
18CDE
100
AcDbEntity
  8
0
  6
Continuous
 62
     5
370
    30
100
AcDbMText
 10
9271.539423
 20
-14470.532496
 30
0.0
 40
1.125
 41
0.0
 71
     1
 72
     1
  3
DESIGNER, FABRICATOR, AND ERECTOR SHALL BE AWARE THAT SKEWED END BEAMS MAY TWIST OR WARP,\PCAUSING UNEVEN BEAM SEATING AT THE BEARINGS.  THE CONTRACTOR IS REQUIRED TO CORRECT AT THE\PTIME OF ERECTION., BEFORE THE BEAMS ARE SECURED IN PLACE.  METHOD O
  3
F CORRECTION SHALL PROVIDE\PAN EVEN, TOTAL BEARING AND A LEVEL TOP BEAM SURFACE.  TOLERANCE, AFTER CORRECTION, SHALL BE (+/-) {\T1.0;\W0.7x;\H0.7x;\S1#8;} INCH.\PTHE FABRICATOR SHALL NOTIFY THE CONTRACTOR AND DESIGNER IF CORRECTIONS ARE REQUIRED PRIO
  1
R TO SHIPMENT.
  7
Style-gen_eng
 73
     2
 44
1.133333
  0
TEXT
  5
181A7
330
18CDE
100
AcDbEntity
  8
0
  6
Continuous
 62
     5
370
    30
100
AcDbText
 10
9271.539423
 20
-14483.657496
 30
0.0
 40
1.125
  1
MAXIMUM BEAM SKEW SHALL BE 30 DEGREES.
  7
Style-gen_eng
 11
9271.539423
 21
-14482.532496
 31
0.0
100
AcDbText
 73
     3
  0
MTEXT
  5
18A71
102
{ACAD_XDICTIONARY
360
18D08
102
}
330
18CDE
100
AcDbEntity
  8
0
  6
Continuous
 62
     5
370
    30
100
AcDbMText
 10
9271.495268
 20
-14483.769023
 30
0.0
 40
1.125
 41
0.0
 71
     1
 72
     1
  1
\PDESIGNER INPUT VALUES OF NUMBER OF INSERTS, DISTANCE FROM END OF BEAM TO \{ FIRST INSERT, AND \{ FIRST INSERT\PTO \{ SECOND INSERT. ABOVE VALUES SHALL BE BASED ON THE REQUIRED 6'-3" GUARDRAIL POST SPACING ACROSS\PTHE BRIDGE.
  7
Style-gen_eng
 73
     2
 44
1.133333
  0
LINE
  5
18AC3
330
18CDE
100
AcDbEntity
  8
CURBLINE
 62
    30
370
    80
100
AcDbLine
 10
9479.450901
 20
-14482.516809
 30
0.0
 11
9415.100901
 21
-14482.505687
 31
0.0
  0
TEXT
  5
18088
330
18CDE
100
AcDbEntity
  8
0
  6
Continuous
 62
     5
370
    30
100
AcDbText
 10
9175.125016
 20
-14326.589807
 30
0.0
 40
1.125
  1
SPAN LENGTH { TO { BEARING
  7
STD SHEET
 11
9175.125016
 21
-14326.027307
 31
0.0
100
AcDbText
 73
     2
  0
TEXT
  5
1808B
330
18CDE
100
AcDbEntity
  8
0
  6
Continuous
 62
     5
370
    30
100
AcDbText
 10
9175.09023
 20
-14330.589807
 30
0.0
 40
1.125
  1
OVERALL LENGTH OF BEAM
  7
STD SHEET
 11
9175.09023
 21
-14330.027307
 31
0.0
100
AcDbText
 73
     2
  0
TEXT
  5
180A7
330
18CDE
100
AcDbEntity
  8
0
  6
Continuous
 62
     5
370
    30
100
AcDbText
 10
9175.167262
 20
-14394.589807
 30
0.0
 40
1.125
  1
TOTAL NO. DEBONDED STRANDS
  7
STD SHEET
 11
9175.167262
 21
-14394.027307
 31
0.0
100
AcDbText
 73
     2
  0
TEXT
  5
180B8
330
18CDE
100
AcDbEntity
  8
0
  6
Continuous
 62
     5
370
    30
100
AcDbText
 10
9196.09023
 20
-14428.589807
 30
0.0
 40
1.125
  1
@ RELEASE
  7
STD SHEET
 11
9196.09023
 21
-14428.027307
 31
0.0
100
AcDbText
 73
     2
  0
TEXT
  5
180B9
330
18CDE
100
AcDbEntity
  8
0
  6
Continuous
 62
     5
370
    30
100
AcDbText
 10
9196.09023
 20
-14432.589807
 30
0.0
 40
1.125
  1
@ ERECTION
  7
STD SHEET
 11
9196.09023
 21
-14432.027307
 31
0.0
100
AcDbText
 73
     2
  0
TEXT
  5
180BA
330
18CDE
100
AcDbEntity
  8
0
  6
Continuous
 62
     5
370
    30
100
AcDbText
 10
9196.09023
 20
-14436.589807
 30
0.0
 40
1.125
  1
@ FINAL
  7
STD SHEET
 11
9196.09023
 21
-14436.027307
 31
0.0
100
AcDbText
 73
     2
  0
MTEXT
  5
180C8
330
18CDE
100
AcDbEntity
  8
0
  6
Continuous
 62
     5
370
    30
100
AcDbMText
 10
9196.09023
 20
-14446.027307
 30
0.0
 40
1.125
 41
0.0
 71
     4
 72
     1
  1
END OF BEAM TO\P\{ OF FIRST INSERT\PEA. END
  7
STD SHEET
 73
     2
 44
1.133333
  0
MTEXT
  5
180CE
330
18CDE
100
AcDbEntity
  8
0
  6
Continuous
 62
     5
370
    30
100
AcDbMText
 10
9196.09023
 20
-14454.027307
 30
0.0
 40
1.125
 41
0.0
 71
     4
 72
     1
  1
\{ OF 1st INSERT \PTO \{ 2nd INSERT\PEA. END
  7
STD SHEET
 73
     2
 44
1.133333
  0
TEXT
  5
180D2
330
18CDE
100
AcDbEntity
  8
0
  6
Continuous
 62
     5
370
    30
100
AcDbText
 10
9196.09023
 20
-14440.589807
 30
0.0
 40
1.125
  1
NO OF INSERTS REQD.
  7
STD SHEET
 11
9196.09023
 21
-14440.027307
 31
0.0
100
AcDbText
 73
     2
  0
MTEXT
  5
180DC
330
18CDE
100
AcDbEntity
  8
0
  6
Continuous
 62
     5
370
    30
100
AcDbMText
 10
9175.154671
 20
-14461.027307
 30
0.0
 40
1.125
 41
0.0
 71
     4
 72
     1
  1
WEIGHT OF TYPICAL BEAM INCLUDING\PDIAPHRAGM (TONS)
  7
STD SHEET
 73
     2
 44
1.133333
  0
TEXT
  5
180F2
330
18CDE
100
AcDbEntity
  8
0
  6
Continuous
 62
     1
370
    53
100
AcDbText
 10
9252.044961
 20
-14321.996795
 30
0.0
 40
1.9375
  1
DESIGN DATA FOR 33" DEPTH ADJACENT BOX BEAM
  7
LABELS
 72
     1
 11
9292.089978
 21
-14321.028045
 31
0.0
100
AcDbText
 73
     2
  0
TEXT
  5
181A6
330
18CDE
100
AcDbEntity
  8
0
  6
Continuous
 62
     5
370
    30
100
AcDbText
 10
9269.539423
 20
-14471.657496
 30
0.0
 40
1.125
  1
4.
  7
STD SHEET
 11
9269.539423
 21
-14470.532496
 31
0.0
100
AcDbText
 73
     3
  0
TEXT
  5
181A8
330
18CDE
100
AcDbEntity
  8
0
  6
Continuous
 62
     5
370
    30
100
AcDbText
 10
9269.539423
 20
-14483.657496
 30
0.0
 40
1.125
  1
5.
  7
STD SHEET
 11
9269.539423
 21
-14482.532496
 31
0.0
100
AcDbText
 73
     3
  0
TEXT
  5
181C0
330
18CDE
100
AcDbEntity
  8
0
  6
Continuous
 62
     5
370
    30
100
AcDbText
 10
9220.09023
 20
-14330.586736
 30
0.0
 40
1.125
  1
51'-6"
  7
STD SHEET
 11
9220.09023
 21
-14330.024236
 31
0.0
100
AcDbText
 73
     2
  0
TEXT
  5
181C1
330
18CDE
100
AcDbEntity
  8
0
  6
Continuous
 62
     5
370
    30
100
AcDbText
 10
9232.09023
 20
-14330.582563
 30
0.0
 40
1.125
  1
53'-6"
  7
STD SHEET
 11
9232.09023
 21
-14330.020063
 31
0.0
100
AcDbText
 73
     2
  0
TEXT
  5
181C2
330
18CDE
100
AcDbEntity
  8
0
  6
Continuous
 62
     5
370
    30
100
AcDbText
 10
9244.09023
 20
-14330.583547
 30
0.0
 40
1.125
  1
55'-6"
  7
STD SHEET
 11
9244.09023
 21
-14330.021047
 31
0.0
100
AcDbText
 73
     2
  0
TEXT
  5
181C3
330
18CDE
100
AcDbEntity
  8
0
  6
Continuous
 62
     5
370
    30
100
AcDbText
 10
9256.09023
 20
-14330.583547
 30
0.0
 40
1.125
  1
57'-6"
  7
STD SHEET
 11
9256.09023
 21
-14330.021047
 31
0.0
100
AcDbText
 73
     2
  0
TEXT
  5
181C4
330
18CDE
100
AcDbEntity
  8
0
  6
Continuous
 62
     5
370
    30
100
AcDbText
 10
9268.09023
 20
-14330.583547
 30
0.0
 40
1.125
  1
59'-6"
  7
STD SHEET
 11
9268.09023
 21
-14330.021047
 31
0.0
100
AcDbText
 73
     2
  0
TEXT
  5
181C5
330
18CDE
100
AcDbEntity
  8
0
  6
Continuous
 62
     5
370
    30
100
AcDbText
 10
9280.09023
 20
-14330.583547
 30
0.0
 40
1.125
  1
61'-6"
  7
STD SHEET
 11
9280.09023
 21
-14330.021047
 31
0.0
100
AcDbText
 73
     2
  0
TEXT
  5
181C6
330
18CDE
100
AcDbEntity
  8
0
  6
Continuous
 62
     5
370
    30
100
AcDbText
 10
9292.09023
 20
-14330.583547
 30
0.0
 40
1.125
  1
63'-6"
  7
STD SHEET
 11
9292.09023
 21
-14330.021047
 31
0.0
100
AcDbText
 73
     2
  0
TEXT
  5
181C7
330
18CDE
100
AcDbEntity
  8
0
  6
Continuous
 62
     5
370
    30
100
AcDbText
 10
9304.09023
 20
-14330.583547
 30
0.0
 40
1.125
  1
65'-6"
  7
STD SHEET
 11
9304.09023
 21
-14330.021047
 31
0.0
100
AcDbText
 73
     2
  0
TEXT
  5
181C8
330
18CDE
100
AcDbEntity
  8
0
  6
Continuous
 62
     5
370
    30
100
AcDbText
 10
9316.09023
 20
-14330.58404
 30
0.0
 40
1.125
  1
67'-6"
  7
STD SHEET
 11
9316.09023
 21
-14330.02154
 31
0.0
100
AcDbText
 73
     2
  0
TEXT
  5
181C9
330
18CDE
100
AcDbEntity
  8
0
  6
Continuous
 62
     5
370
    30
100
AcDbText
 10
9328.09023
 20
-14330.586736
 30
0.0
 40
1.125
  1
69'-6"
  7
STD SHEET
 11
9328.09023
 21
-14330.024236
 31
0.0
100
AcDbText
 73
     2
  0
TEXT
  5
185D2
330
18CDE
100
AcDbEntity
  8
0
 62
     5
370
    30
100
AcDbText
 10
9175.161554
 20
-14353.589807
 30
0.0
 40
1.125
  1
STRAND POSITION NUMBER
  7
STD SHEET
 11
9175.161554
 21
-14353.027307
 31
0.0
100
AcDbText
 73
     2
  0
TEXT
  5
185D4
330
18CDE
100
AcDbEntity
  8
0
 62
     5
370
    30
100
AcDbText
 10
9208.050152
 20
-14341.700787
 30
0.0
 40
1.125
  1
ROW 1
  7
STD SHEET
 11
9208.050152
 21
-14340.575787
 31
0.0
100
AcDbText
 73
     3
  0
TEXT
  5
185D5
330
18CDE
100
AcDbEntity
  8
0
 62
     5
370
    30
100
AcDbText
 10
9208.050152
 20
-14347.665414
 30
0.0
 40
1.125
  1
ROW 2
  7
STD SHEET
 11
9208.050152
 21
-14346.540414
 31
0.0
100
AcDbText
 73
     3
  0
TEXT
  5
185D6
330
18CDE
100
AcDbEntity
  8
0
 62
     5
370
    30
100
AcDbText
 10
9208.050152
 20
-14353.496004
 30
0.0
 40
1.125
  1
ROW 3
  7
STD SHEET
 11
9208.050152
 21
-14352.371004
 31
0.0
100
AcDbText
 73
     3
  0
TEXT
  5
185D8
330
18CDE
100
AcDbEntity
  8
0
 62
     5
370
    30
100
AcDbText
 10
9208.050152
 20
-14365.525785
 30
0.0
 40
1.125
  1
ROW 4
  7
STD SHEET
 11
9208.050152
 21
-14364.400785
 31
0.0
100
AcDbText
 73
     3
  0
MTEXT
  5
185DB
330
18CDE
100
AcDbEntity
  8
0
 62
     5
370
    30
100
AcDbMText
 10
9175.13645
 20
-14423.305888
 30
0.0
 40
1.125
 41
0.0
 71
     4
 72
     1
  1
NUMBER & LENGTH #5 BT BOTTOM \PTENSION BARS @ EACH END
  7
STD SHEET
 73
     2
 44
1.133333
  0
MTEXT
  5
180B2
330
18CDE
100
AcDbEntity
  8
0
  6
Continuous
 62
     5
370
    30
100
AcDbMText
 10
9175.148004
 20
-14417.109841
 30
0.0
 40
1.125
 41
0.0
 71
     4
 72
     1
  1
NUMBER & LENGTH #4 ET TOP \PTENSION BARS @ EACH END
  7
STD SHEET
 73
     2
 44
1.133333
  0
MTEXT
  5
1808C
330
18CDE
100
AcDbEntity
  8
0
  6
Continuous
 62
     5
370
    30
100
AcDbMText
 10
9175.154048
 20
-14335.027307
 30
0.0
 40
1.125
 41
0.0
 71
     4
 72
     1
  1
NO. OF 270 KSI,  {\T1.0;\W0.7x;\H0.7x;\S1#2;}" ~ LOW-RELAXATION\PSTRANDS, AREA/STRAND = 0.167 SQ. IN.
  7
STD SHEET
 73
     2
 44
1.133333
  0
MTEXT
  5
18093
330
18CDE
100
AcDbEntity
  8
0
  6
Continuous
 62
     5
370
    30
100
AcDbMText
 10
9175.161554
 20
-14371.062692
 30
0.0
 40
1.125
 41
0.0
 71
     4
 72
     1
  1
PRESTRESSING FORCE IMMEDIATELY AFTER \PSTRAND RELEASE, Ppt, (KIPS/BEAM)
  7
STD SHEET
 73
     2
 44
1.133333
  0
MTEXT
  5
18096
330
18CDE
100
AcDbEntity
  8
0
  6
Continuous
 62
     5
370
    30
100
AcDbMText
 10
9175.159559
 20
-14377.027307
 30
0.0
 40
1.125
 41
0.0
 71
     4
 72
     1
  1
EFFECTIVE PRESTRESSING FORCE AFTER\PALL LOSSES, Ppe, (KIPS/BEAM)
  7
STD SHEET
 73
     2
 44
1.133333
  0
MTEXT
  5
180A2
330
18CDE
100
AcDbEntity
  8
0
  6
Continuous
 62
     5
370
    30
100
AcDbMText
 10
9175.151856
 20
-14383.156603
 30
0.0
 40
1.125
 41
0.0
 71
     4
 72
     1
  1
REQUIRED FACTORED MOMENT \P@ STRENGTH I, Mu (FT-KIPS/BEAM)
  7
STD SHEET
 73
     2
 44
1.133333
  0
MTEXT
  5
1809C
330
18CDE
100
AcDbEntity
  8
0
  6
Continuous
 62
     5
370
    30
100
AcDbMText
 10
9175.159559
 20
-14389.179376
 30
0.0
 40
1.125
 41
0.0
 71
     4
 72
     1
  1
FACTORED FLEXURAL\PRESISTANCE, Mr (FT-KIPS/BEAM)
  7
STD SHEET
 73
     2
 44
1.133333
  0
TEXT
  5
1860F
330
18CDE
100
AcDbEntity
  8
0
 62
     5
370
    30
100
AcDbText
 10
9208.91743
 20
-14401.10862
 30
0.0
 40
1.125
  1
ROW 1
  7
STD SHEET
 72
     1
 11
9211.654537
 21
-14400.54612
 31
0.0
100
AcDbText
 73
     2
  0
TEXT
  5
18610
330
18CDE
100
AcDbEntity
  8
0
 62
     5
370
    30
100
AcDbText
 10
9208.796023
 20
-14410.089807
 30
0.0
 40
1.125
  1
ROW 2
  7
STD SHEET
 72
     1
 11
9211.732463
 21
-14409.527307
 31
0.0
100
AcDbText
 73
     2
  0
MTEXT
  5
1860C
330
18CDE
100
AcDbEntity
  8
0
 62
     5
370
    30
100
AcDbMText
 10
9175.154237
 20
-14405.027307
 30
0.0
 40
1.125
 41
0.0
 71
     4
 72
     1
  1
DEBONDED STRAND POSITION\PNUMBER & SHIELDING LENGTH \PFROM EACH END
  7
STD SHEET
 73
     2
 44
1.133333
  0
TEXT
  5
1862E
330
18CDE
100
AcDbEntity
  8
0
 62
     5
370
    30
100
AcDbText
 10
9175.148004
 20
-14433.027307
 30
0.0
 40
2.0
  1
+=
  7
STD SHEET
 11
9175.148004
 21
-14432.027307
 31
0.0
100
AcDbText
 73
     2
  0
TEXT
  5
1862F
330
18CDE
100
AcDbEntity
  8
0
 62
     5
370
    30
100
AcDbText
 10
9178.910272
 20
-14432.589807
 30
0.0
 40
1.125
  1
POSITIVE (UP)
  7
STD SHEET
 11
9178.910272
 21
-14432.027307
 31
0.0
100
AcDbText
 73
     2
  0
TEXT
  5
18630
330
18CDE
100
AcDbEntity
  8
0
 62
     5
370
    30
100
AcDbText
 10
9175.122583
 20
-14434.600356
 30
0.0
 40
1.125
  1
(INCHES)
  7
STD SHEET
 11
9175.122583
 21
-14434.037856
 31
0.0
100
AcDbText
 73
     2
  0
TEXT
  5
180BF
330
18CDE
100
AcDbEntity
  8
0
  6
Continuous
 62
     5
370
    30
100
AcDbText
 10
9175.179562
 20
-14430.509373
 30
0.0
 40
1.125
  1
DESIGN CAMBER
  7
STD SHEET
 11
9175.179562
 21
-14429.946873
 31
0.0
100
AcDbText
 73
     2
  0
MTEXT
  5
1864B
330
18CDE
100
AcDbEntity
  8
0
 62
     5
370
    30
100
AcDbMText
 10
9413.025557
 20
-14331.478056
 30
0.0
 40
1.5
 41
0.0
 71
     4
 72
     1
  1
MIN. CONCRETE STRENGTH @ RELEASE\PMIN. CONCRETE STRENGTH @ 28 DAYS\PINITIAL PULL/STRAND\PCROSS-SECTION AREA/STRAND
  7
STD SHEET
 73
     2
 44
1.4
  0
MTEXT
  5
18650
330
18CDE
100
AcDbEntity
  8
0
 62
     5
370
    30
100
AcDbMText
 10
9460.072389
 20
-14331.478056
 30
0.0
 40
1.5
 41
0.0
 71
     4
 72
     1
  1
= 5500 PSI\P= 8000 PSI\P= 33,820 LBS\P= 0.167 SQ. IN.
  7
STD SHEET
 73
     2
 44
1.4
  0
TEXT
  5
1867E
330
18CDE
100
AcDbEntity
  8
0
 62
     5
370
    30
100
AcDbText
 10
9340.712835
 20
-14330.525489
 30
0.0
 40
1.125
  1
71'-6"
  7
STD SHEET
 11
9340.712835
 21
-14329.400489
 31
0.0
100
AcDbText
 73
     3
  0
TEXT
  5
181B5
330
18CDE
100
AcDbEntity
  8
0
  6
Continuous
 62
     5
370
    30
100
AcDbText
 10
9220.084956
 20
-14326.617785
 30
0.0
 40
1.125
  1
50'-0"
  7
STD SHEET
 11
9220.084956
 21
-14326.055285
 31
0.0
100
AcDbText
 73
     2
  0
TEXT
  5
181B6
330
18CDE
100
AcDbEntity
  8
0
  6
Continuous
 62
     5
370
    30
100
AcDbText
 10
9232.079682
 20
-14326.581579
 30
0.0
 40
1.125
  1
52'-0"
  7
STD SHEET
 11
9232.079682
 21
-14326.019079
 31
0.0
100
AcDbText
 73
     2
  0
TEXT
  5
181B7
330
18CDE
100
AcDbEntity
  8
0
  6
Continuous
 62
     5
370
    30
100
AcDbText
 10
9244.010482
 20
-14326.585752
 30
0.0
 40
1.125
  1
54'-0"
  7
STD SHEET
 11
9244.010482
 21
-14326.023252
 31
0.0
100
AcDbText
 73
     2
  0
TEXT
  5
181B8
330
18CDE
100
AcDbEntity
  8
0
  6
Continuous
 62
     5
370
    30
100
AcDbText
 10
9256.006754
 20
-14326.585752
 30
0.0
 40
1.125
  1
56'-0"
  7
STD SHEET
 11
9256.006754
 21
-14326.023252
 31
0.0
100
AcDbText
 73
     2
  0
TEXT
  5
181B9
330
18CDE
100
AcDbEntity
  8
0
  6
Continuous
 62
     5
370
    30
100
AcDbText
 10
9268.036535
 20
-14326.585752
 30
0.0
 40
1.125
  1
58'-0"
  7
STD SHEET
 11
9268.036535
 21
-14326.023252
 31
0.0
100
AcDbText
 73
     2
  0
TEXT
  5
181BA
330
18CDE
100
AcDbEntity
  8
0
  6
Continuous
 62
     5
370
    30
100
AcDbText
 10
9280.066316
 20
-14326.582071
 30
0.0
 40
1.125
  1
60'-0"
  7
STD SHEET
 11
9280.066316
 21
-14326.019571
 31
0.0
100
AcDbText
 73
     2
  0
TEXT
  5
181BB
330
18CDE
100
AcDbEntity
  8
0
  6
Continuous
 62
     5
370
    30
100
AcDbText
 10
9292.029078
 20
-14326.582563
 30
0.0
 40
1.125
  1
62'-0"
  7
STD SHEET
 11
9292.029078
 21
-14326.020063
 31
0.0
100
AcDbText
 73
     2
  0
TEXT
  5
181BC
330
18CDE
100
AcDbEntity
  8
0
  6
Continuous
 62
     5
370
    30
100
AcDbText
 10
9304.02535
 20
-14326.582563
 30
0.0
 40
1.125
  1
64'-0"
  7
STD SHEET
 11
9304.02535
 21
-14326.020063
 31
0.0
100
AcDbText
 73
     2
  0
TEXT
  5
181BD
330
18CDE
100
AcDbEntity
  8
0
  6
Continuous
 62
     5
370
    30
100
AcDbText
 10
9315.988113
 20
-14326.582563
 30
0.0
 40
1.125
  1
66'-0"
  7
STD SHEET
 11
9315.988113
 21
-14326.020063
 31
0.0
100
AcDbText
 73
     2
  0
TEXT
  5
181BE
330
18CDE
100
AcDbEntity
  8
0
  6
Continuous
 62
     5
370
    30
100
AcDbText
 10
9327.984385
 20
-14326.584158
 30
0.0
 40
1.125
  1
68'-0"
  7
STD SHEET
 11
9327.984385
 21
-14326.021658
 31
0.0
100
AcDbText
 73
     2
  0
TEXT
  5
1867D
330
18CDE
100
AcDbEntity
  8
0
 62
     5
370
    30
100
AcDbText
 10
9340.684348
 20
-14326.571411
 30
0.0
 40
1.125
  1
70'-0"
  7
STD SHEET
 11
9340.684348
 21
-14325.446411
 31
0.0
100
AcDbText
 73
     3
  0
TEXT
  5
1890A
330
18CDE
100
AcDbEntity
  8
0
 62
     5
370
    30
100
AcDbText
 10
9222.227369
 20
-14335.565217
 30
0.0
 40
1.125
  1
12
  7
STD SHEET
 72
     1
 11
9222.967023
 21
-14335.002717
 31
0.0
100
AcDbText
 73
     2
  0
TEXT
  5
1890B
330
18CDE
100
AcDbEntity
  8
0
 62
     5
370
    30
100
AcDbText
 10
9217.802831
 20
-14341.546599
 30
0.0
 40
1.125
  1
1,2,7,8,13,14
  7
STD SHEET
 72
     1
 11
9222.967023
 21
-14340.984099
 31
0.0
100
AcDbText
 73
     2
  0
TEXT
  5
1890C
330
18CDE
100
AcDbEntity
  8
0
 62
     5
370
    30
100
AcDbText
 10
9218.223608
 20
-14347.544735
 30
0.0
 40
1.125
  1
15,16,27,28
  7
STD SHEET
 72
     1
 11
9222.967023
 21
-14346.982235
 31
0.0
100
AcDbText
 73
     2
  0
TEXT
  5
1890D
330
18CDE
100
AcDbEntity
  8
0
 62
     5
370
    30
100
AcDbText
 10
9220.593015
 20
-14365.572652
 30
0.0
 40
1.125
  1
33,34
  7
STD SHEET
 72
     1
 11
9222.967023
 21
-14365.010152
 31
0.0
100
AcDbText
 73
     2
  0
TEXT
  5
1890E
330
18CDE
100
AcDbEntity
  8
0
 62
     5
370
    30
100
AcDbText
 10
9221.465604
 20
-14371.503769
 30
0.0
 40
1.125
  1
394
  7
STD SHEET
 72
     1
 11
9222.967023
 21
-14370.941269
 31
0.0
100
AcDbText
 73
     2
  0
TEXT
  5
1890F
330
18CDE
100
AcDbEntity
  8
0
 62
     5
370
    30
100
AcDbText
 10
9221.492109
 20
-14377.568923
 30
0.0
 40
1.125
  1
359
  7
STD SHEET
 72
     1
 11
9222.967023
 21
-14377.006423
 31
0.0
100
AcDbText
 73
     2
  0
TEXT
  5
18910
330
18CDE
100
AcDbEntity
  8
0
 62
     5
370
    30
100
AcDbText
 10
9221.465536
 20
-14383.567059
 30
0.0
 40
1.125
  1
858
  7
STD SHEET
 72
     1
 11
9222.967023
 21
-14383.004559
 31
0.0
100
AcDbText
 73
     2
  0
TEXT
  5
18911
330
18CDE
100
AcDbEntity
  8
0
 62
     5
370
    30
100
AcDbText
 10
9221.133474
 20
-14389.598704
 30
0.0
 40
1.125
  1
1092
  7
STD SHEET
 72
     1
 11
9222.967023
 21
-14389.036204
 31
0.0
100
AcDbText
 73
     2
  0
MTEXT
  5
18912
330
18CDE
100
AcDbEntity
  8
0
 62
     5
370
    30
100
AcDbMText
 10
9222.966742
 20
-14416.949317
 30
0.0
 40
1.125
 41
0.0
 71
     5
 72
     1
  1
3 - #4\Px 6'-6"
  7
STD SHEET
 73
     2
 44
1.133333
  0
MTEXT
  5
18915
330
18CDE
100
AcDbEntity
  8
0
 62
     2
370
    30
100
AcDbMText
 10
9222.966742
 20
-14422.980962
 30
0.0
 40
1.125
 41
0.0
 71
     5
 72
     1
  1
\C5;6 - #6\Px 7'-0"
  7
STD SHEET
 73
     2
 44
1.133333
  0
TEXT
  5
18918
330
18CDE
100
AcDbEntity
  8
0
 62
     5
370
    30
100
AcDbText
 10
9221.412458
 20
-14428.569833
 30
0.0
 40
1.125
  1
0.19
  7
STD SHEET
 72
     1
 11
9222.967023
 21
-14428.007333
 31
0.0
100
AcDbText
 73
     2
  0
TEXT
  5
18919
330
18CDE
100
AcDbEntity
  8
0
 62
     5
370
    30
100
AcDbText
 10
9221.186552
 20
-14432.523912
 30
0.0
 40
1.125
  1
0.25
  7
STD SHEET
 72
     1
 11
9222.967023
 21
-14431.961412
 31
0.0
100
AcDbText
 73
     2
  0
TEXT
  5
1891A
330
18CDE
100
AcDbEntity
  8
0
 62
     5
370
    30
100
AcDbText
 10
9221.38149
 20
-14436.545009
 30
0.0
 40
1.125
  1
0.17
  7
STD SHEET
 72
     1
 11
9222.967023
 21
-14435.982509
 31
0.0
100
AcDbText
 73
     2
  0
TEXT
  5
1891C
330
18CDE
100
AcDbEntity
  8
0
 62
     5
370
    30
100
AcDbText
 10
9234.25715
 20
-14335.548463
 30
0.0
 40
1.125
  1
12
  7
STD SHEET
 72
     1
 11
9234.996804
 21
-14334.985963
 31
0.0
100
AcDbText
 73
     2
  0
TEXT
  5
1891D
330
18CDE
100
AcDbEntity
  8
0
 62
     5
370
    30
100
AcDbText
 10
9229.832612
 20
-14341.580108
 30
0.0
 40
1.125
  1
1,2,7,8,13,14
  7
STD SHEET
 72
     1
 11
9234.996804
 21
-14341.017608
 31
0.0
100
AcDbText
 73
     2
  0
TEXT
  5
1891E
330
18CDE
100
AcDbEntity
  8
0
 62
     5
370
    30
100
AcDbText
 10
9230.253389
 20
-14347.544735
 30
0.0
 40
1.125
  1
15,16,27,28
  7
STD SHEET
 72
     1
 11
9234.996804
 21
-14346.982235
 31
0.0
100
AcDbText
 73
     2
  0
TEXT
  5
1891F
330
18CDE
100
AcDbEntity
  8
0
 62
     5
370
    30
100
AcDbText
 10
9232.622796
 20
-14365.572652
 30
0.0
 40
1.125
  1
33,34
  7
STD SHEET
 72
     1
 11
9234.996804
 21
-14365.010152
 31
0.0
100
AcDbText
 73
     2
  0
TEXT
  5
18920
330
18CDE
100
AcDbEntity
  8
0
 62
     5
370
    30
100
AcDbText
 10
9233.495385
 20
-14371.537278
 30
0.0
 40
1.125
  1
394
  7
STD SHEET
 72
     1
 11
9234.996804
 21
-14370.974778
 31
0.0
100
AcDbText
 73
     2
  0
TEXT
  5
18921
330
18CDE
100
AcDbEntity
  8
0
 62
     5
370
    30
100
AcDbText
 10
9233.526422
 20
-14377.568923
 30
0.0
 40
1.125
  1
360
  7
STD SHEET
 72
     1
 11
9234.996804
 21
-14377.006423
 31
0.0
100
AcDbText
 73
     2
  0
TEXT
  5
18923
330
18CDE
100
AcDbEntity
  8
0
 62
     5
370
    30
100
AcDbText
 10
9233.721292
 20
-14383.53355
 30
0.0
 40
1.125
  1
918
  7
STD SHEET
 72
     1
 11
9234.996804
 21
-14382.97105
 31
0.0
100
AcDbText
 73
     2
  0
TEXT
  5
18924
330
18CDE
100
AcDbEntity
  8
0
 62
     5
370
    30
100
AcDbText
 10
9233.163255
 20
-14389.565195
 30
0.0
 40
1.125
  1
1092
  7
STD SHEET
 72
     1
 11
9234.996804
 21
-14389.002695
 31
0.0
100
AcDbText
 73
     2
  0
MTEXT
  5
18925
330
18CDE
100
AcDbEntity
  8
0
 62
     5
370
    30
100
AcDbMText
 10
9234.996523
 20
-14416.949317
 30
0.0
 40
1.125
 41
0.0
 71
     5
 72
     1
  1
3 - #4\Px 6'-6"
  7
STD SHEET
 73
     2
 44
1.133333
  0
MTEXT
  5
18928
330
18CDE
100
AcDbEntity
  8
0
 62
     2
370
    30
100
AcDbMText
 10
9234.996523
 20
-14422.913944
 30
0.0
 40
1.125
 41
0.0
 71
     5
 72
     1
  1
\C5;6 - #6\Px 6'-0"
  7
STD SHEET
 73
     2
 44
1.133333
  0
TEXT
  5
1892B
330
18CDE
100
AcDbEntity
  8
0
 62
     5
370
    30
100
AcDbText
 10
9233.415666
 20
-14428.569833
 30
0.0
 40
1.125
  1
0.18
  7
STD SHEET
 72
     1
 11
9234.996804
 21
-14428.007333
 31
0.0
100
AcDbText
 73
     2
  0
TEXT
  5
1892C
330
18CDE
100
AcDbEntity
  8
0
 62
     5
370
    30
100
AcDbText
 10
9233.216333
 20
-14432.523912
 30
0.0
 40
1.125
  1
0.22
  7
STD SHEET
 72
     1
 11
9234.996804
 21
-14431.961412
 31
0.0
100
AcDbText
 73
     2
  0
TEXT
  5
1892D
330
18CDE
100
AcDbEntity
  8
0
 62
     5
370
    30
100
AcDbText
 10
9233.420129
 20
-14436.47799
 30
0.0
 40
1.125
  1
0.10
  7
STD SHEET
 72
     1
 11
9234.996804
 21
-14435.91549
 31
0.0
100
AcDbText
 73
     2
  0
TEXT
  5
1892F
330
18CDE
100
AcDbEntity
  8
0
 62
     5
370
    30
100
AcDbText
 10
9246.227369
 20
-14335.565217
 30
0.0
 40
1.125
  1
12
  7
STD SHEET
 72
     1
 11
9246.967023
 21
-14335.002717
 31
0.0
100
AcDbText
 73
     2
  0
TEXT
  5
18930
330
18CDE
100
AcDbEntity
  8
0
 62
     5
370
    30
100
AcDbText
 10
9241.802831
 20
-14341.513089
 30
0.0
 40
1.125
  1
1,2,7,8,13,14
  7
STD SHEET
 72
     1
 11
9246.967023
 21
-14340.950589
 31
0.0
100
AcDbText
 73
     2
  0
TEXT
  5
18931
330
18CDE
100
AcDbEntity
  8
0
 62
     5
370
    30
100
AcDbText
 10
9242.223608
 20
-14347.544735
 30
0.0
 40
1.125
  1
15,16,27,28
  7
STD SHEET
 72
     1
 11
9246.967023
 21
-14346.982235
 31
0.0
100
AcDbText
 73
     2
  0
TEXT
  5
18932
330
18CDE
100
AcDbEntity
  8
0
 62
     5
370
    30
100
AcDbText
 10
9244.593015
 20
-14365.505633
 30
0.0
 40
1.125
  1
33,34
  7
STD SHEET
 72
     1
 11
9246.967023
 21
-14364.943133
 31
0.0
100
AcDbText
 73
     2
  0
TEXT
  5
18933
330
18CDE
100
AcDbEntity
  8
0
 62
     5
370
    30
100
AcDbText
 10
9245.465604
 20
-14371.47026
 30
0.0
 40
1.125
  1
394
  7
STD SHEET
 72
     1
 11
9246.967023
 21
-14370.90776
 31
0.0
100
AcDbText
 73
     2
  0
TEXT
  5
18934
330
18CDE
100
AcDbEntity
  8
0
 62
     5
370
    30
100
AcDbText
 10
9245.691511
 20
-14377.568923
 30
0.0
 40
1.125
  1
361
  7
STD SHEET
 72
     1
 11
9246.967023
 21
-14377.006423
 31
0.0
100
AcDbText
 73
     2
  0
TEXT
  5
18935
330
18CDE
100
AcDbEntity
  8
0
 62
     5
370
    30
100
AcDbText
 10
9245.514356
 20
-14383.53355
 30
0.0
 40
1.125
  1
979
  7
STD SHEET
 72
     1
 11
9246.967023
 21
-14382.97105
 31
0.0
100
AcDbText
 73
     2
  0
TEXT
  5
18936
330
18CDE
100
AcDbEntity
  8
0
 62
     5
370
    30
100
AcDbText
 10
9245.133474
 20
-14389.498177
 30
0.0
 40
1.125
  1
1092
  7
STD SHEET
 72
     1
 11
9246.967023
 21
-14388.935677
 31
0.0
100
AcDbText
 73
     2
  0
MTEXT
  5
18937
330
18CDE
100
AcDbEntity
  8
0
 62
     5
370
    30
100
AcDbMText
 10
9246.966742
 20
-14416.949317
 30
0.0
 40
1.125
 41
0.0
 71
     5
 72
     1
  1
3 - #4\Px 7'-0"
  7
STD SHEET
 73
     2
 44
1.133333
  0
MTEXT
  5
1893A
330
18CDE
100
AcDbEntity
  8
0
 62
     2
370
    30
100
AcDbMText
 10
9246.966742
 20
-14422.913944
 30
0.0
 40
1.125
 41
0.0
 71
     5
 72
     1
  1
\C5;6 - #6\Px 7'-0"
  7
STD SHEET
 73
     2
 44
1.133333
  0
TEXT
  5
1893D
330
18CDE
100
AcDbEntity
  8
0
 62
     5
370
    30
100
AcDbText
 10
9245.38149
 20
-14428.569833
 30
0.0
 40
1.125
  1
0.17
  7
STD SHEET
 72
     1
 11
9246.967023
 21
-14428.007333
 31
0.0
100
AcDbText
 73
     2
  0
TEXT
  5
1893E
330
18CDE
100
AcDbEntity
  8
0
 62
     5
370
    30
100
AcDbText
 10
9245.412458
 20
-14432.456894
 30
0.0
 40
1.125
  1
0.19
  7
STD SHEET
 72
     1
 11
9246.967023
 21
-14431.894394
 31
0.0
100
AcDbText
 73
     2
  0
TEXT
  5
1893F
330
18CDE
100
AcDbEntity
  8
0
 62
     5
370
    30
100
AcDbText
 10
9245.191015
 20
-14436.410972
 30
0.0
 40
1.125
  1
0.03
  7
STD SHEET
 72
     1
 11
9246.967023
 21
-14435.848472
 31
0.0
100
AcDbText
 73
     2
  0
TEXT
  5
18941
330
18CDE
100
AcDbEntity
  8
0
 62
     5
370
    30
100
AcDbText
 10
9258.200796
 20
-14335.565217
 30
0.0
 40
1.125
  1
14
  7
STD SHEET
 72
     1
 11
9258.967023
 21
-14335.002717
 31
0.0
100
AcDbText
 73
     2
  0
TEXT
  5
18942
330
18CDE
100
AcDbEntity
  8
0
 62
     5
370
    30
100
AcDbText
 10
9253.802831
 20
-14341.379053
 30
0.0
 40
1.125
  1
1,2,7,8,13,14
  7
STD SHEET
 72
     1
 11
9258.967023
 21
-14340.816553
 31
0.0
100
AcDbText
 73
     2
  0
MTEXT
  5
18943
330
18CDE
100
AcDbEntity
  8
0
 62
     5
370
    30
100
AcDbMText
 10
9258.966742
 20
-14346.982235
 30
0.0
 40
1.125
 41
0.0
 71
     5
 72
     1
  1
15,16,21,22,\P27,28
  7
STD SHEET
 73
     2
 44
1.133333
  0
TEXT
  5
18946
330
18CDE
100
AcDbEntity
  8
0
 62
     5
370
    30
100
AcDbText
 10
9256.593015
 20
-14365.572652
 30
0.0
 40
1.125
  1
33,34
  7
STD SHEET
 72
     1
 11
9258.967023
 21
-14365.010152
 31
0.0
100
AcDbText
 73
     2
  0
TEXT
  5
18947
330
18CDE
100
AcDbEntity
  8
0
 62
     5
370
    30
100
AcDbText
 10
9257.434568
 20
-14371.537278
 30
0.0
 40
1.125
  1
457
  7
STD SHEET
 72
     1
 11
9258.967023
 21
-14370.974778
 31
0.0
100
AcDbText
 73
     2
  0
TEXT
  5
18948
330
18CDE
100
AcDbEntity
  8
0
 62
     5
370
    30
100
AcDbText
 10
9257.611723
 20
-14377.434887
 30
0.0
 40
1.125
  1
414
  7
STD SHEET
 72
     1
 11
9258.967023
 21
-14376.872387
 31
0.0
100
AcDbText
 73
     2
  0
TEXT
  5
18949
330
18CDE
100
AcDbEntity
  8
0
 62
     5
370
    30
100
AcDbText
 10
9257.080259
 20
-14383.399514
 30
0.0
 40
1.125
  1
1042
  7
STD SHEET
 72
     1
 11
9258.967023
 21
-14382.837014
 31
0.0
100
AcDbText
 73
     2
  0
TEXT
  5
1894A
330
18CDE
100
AcDbEntity
  8
0
 62
     5
370
    30
100
AcDbText
 10
9257.106832
 20
-14389.498177
 30
0.0
 40
1.125
  1
1280
  7
STD SHEET
 72
     1
 11
9258.967023
 21
-14388.935677
 31
0.0
100
AcDbText
 73
     2
  0
MTEXT
  5
1894B
330
18CDE
100
AcDbEntity
  8
0
 62
     5
370
    30
100
AcDbMText
 10
9258.966742
 20
-14416.949317
 30
0.0
 40
1.125
 41
0.0
 71
     5
 72
     1
  1
3 - #4\Px 7'-0"
  7
STD SHEET
 73
     2
 44
1.133333
  0
TEXT
  5
18951
330
18CDE
100
AcDbEntity
  8
0
 62
     5
370
    30
100
AcDbText
 10
9257.182157
 20
-14428.435797
 30
0.0
 40
1.125
  1
0.27
  7
STD SHEET
 72
     1
 11
9258.967023
 21
-14427.873297
 31
0.0
100
AcDbText
 73
     2
  0
TEXT
  5
18952
330
18CDE
100
AcDbEntity
  8
0
 62
     5
370
    30
100
AcDbText
 10
9257.186552
 20
-14432.322857
 30
0.0
 40
1.125
  1
0.35
  7
STD SHEET
 72
     1
 11
9258.967023
 21
-14431.760357
 31
0.0
100
AcDbText
 73
     2
  0
TEXT
  5
18953
330
18CDE
100
AcDbEntity
  8
0
 62
     5
370
    30
100
AcDbText
 10
9257.385885
 20
-14436.612027
 30
0.0
 40
1.125
  1
0.21
  7
STD SHEET
 72
     1
 11
9258.967023
 21
-14436.049527
 31
0.0
100
AcDbText
 73
     2
  0
TEXT
  5
18955
330
18CDE
100
AcDbEntity
  8
0
 62
     5
370
    30
100
AcDbText
 10
9270.219392
 20
-14335.481444
 30
0.0
 40
1.125
  1
14
  7
STD SHEET
 72
     1
 11
9270.98562
 21
-14334.918944
 31
0.0
100
AcDbText
 73
     2
  0
TEXT
  5
18956
330
18CDE
100
AcDbEntity
  8
0
 62
     5
370
    30
100
AcDbText
 10
9265.821428
 20
-14341.47958
 30
0.0
 40
1.125
  1
1,2,7,8,13,14
  7
STD SHEET
 72
     1
 11
9270.98562
 21
-14340.91708
 31
0.0
100
AcDbText
 73
     2
  0
MTEXT
  5
18957
330
18CDE
100
AcDbEntity
  8
0
 62
     5
370
    30
100
AcDbMText
 10
9270.985339
 20
-14346.982235
 30
0.0
 40
1.125
 41
0.0
 71
     5
 72
     1
  1
15,16,21,22,\P27,28
  7
STD SHEET
 73
     2
 44
1.133333
  0
TEXT
  5
1895A
330
18CDE
100
AcDbEntity
  8
0
 62
     5
370
    30
100
AcDbText
 10
9268.611612
 20
-14365.539142
 30
0.0
 40
1.125
  1
33,34
  7
STD SHEET
 72
     1
 11
9270.98562
 21
-14364.976642
 31
0.0
100
AcDbText
 73
     2
  0
TEXT
  5
1895B
330
18CDE
100
AcDbEntity
  8
0
 62
     5
370
    30
100
AcDbText
 10
9269.457559
 20
-14371.537278
 30
0.0
 40
1.125
  1
458
  7
STD SHEET
 72
     1
 11
9270.98562
 21
-14370.974778
 31
0.0
100
AcDbText
 73
     2
  0
TEXT
  5
1895C
330
18CDE
100
AcDbEntity
  8
0
 62
     5
370
    30
100
AcDbText
 10
9269.683465
 20
-14377.535414
 30
0.0
 40
1.125
  1
416
  7
STD SHEET
 72
     1
 11
9270.98562
 21
-14376.972914
 31
0.0
100
AcDbText
 73
     2
  0
TEXT
  5
1895D
330
18CDE
100
AcDbEntity
  8
0
 62
     5
370
    30
100
AcDbText
 10
9269.320367
 20
-14383.53355
 30
0.0
 40
1.125
  1
1107
  7
STD SHEET
 72
     1
 11
9270.98562
 21
-14382.97105
 31
0.0
100
AcDbText
 73
     2
  0
TEXT
  5
1895E
330
18CDE
100
AcDbEntity
  8
0
 62
     5
370
    30
100
AcDbText
 10
9269.125429
 20
-14389.531686
 30
0.0
 40
1.125
  1
1280
  7
STD SHEET
 72
     1
 11
9270.98562
 21
-14388.969186
 31
0.0
100
AcDbText
 73
     2
  0
MTEXT
  5
18962
330
18CDE
100
AcDbEntity
  8
0
 62
     2
370
    30
100
AcDbMText
 10
9270.985339
 20
-14422.947453
 30
0.0
 40
1.125
 41
0.0
 71
     5
 72
     1
  1
\C5;6 - #6\Px 8'-0"
  7
STD SHEET
 73
     2
 44
1.133333
  0
TEXT
  5
18965
330
18CDE
100
AcDbEntity
  8
0
 62
     5
370
    30
100
AcDbText
 10
9269.231721
 20
-14428.536324
 30
0.0
 40
1.125
  1
0.26
  7
STD SHEET
 72
     1
 11
9270.98562
 21
-14427.973824
 31
0.0
100
AcDbText
 73
     2
  0
TEXT
  5
18966
330
18CDE
100
AcDbEntity
  8
0
 62
     5
370
    30
100
AcDbText
 10
9269.205148
 20
-14432.523912
 30
0.0
 40
1.125
  1
0.32
  7
STD SHEET
 72
     1
 11
9270.98562
 21
-14431.961412
 31
0.0
100
AcDbText
 73
     2
  0
TEXT
  5
18967
330
18CDE
100
AcDbEntity
  8
0
 62
     5
370
    30
100
AcDbText
 10
9269.404481
 20
-14436.545009
 30
0.0
 40
1.125
  1
0.12
  7
STD SHEET
 72
     1
 11
9270.98562
 21
-14435.982509
 31
0.0
100
AcDbText
 73
     2
  0
TEXT
  5
18969
330
18CDE
100
AcDbEntity
  8
0
 62
     5
370
    30
100
AcDbText
 10
9282.30986
 20
-14335.5625
 30
0.0
 40
1.125
  1
14
  7
STD SHEET
 72
     1
 11
9283.076087
 21
-14335.0
 31
0.0
100
AcDbText
 73
     2
  0
TEXT
  5
1896A
330
18CDE
100
AcDbEntity
  8
0
 62
     5
370
    30
100
AcDbText
 10
9277.911895
 20
-14341.5625
 30
0.0
 40
1.125
  1
1,2,7,8,13,14
  7
STD SHEET
 72
     1
 11
9283.076087
 21
-14341.0
 31
0.0
100
AcDbText
 73
     2
  0
MTEXT
  5
1896B
330
18CDE
100
AcDbEntity
  8
0
 62
     5
370
    30
100
AcDbMText
 10
9283.075806
 20
-14347.0
 30
0.0
 40
1.125
 41
0.0
 71
     5
 72
     1
  1
15,16,21,22,\P27,28
  7
STD SHEET
 73
     2
 44
1.133333
  0
TEXT
  5
1896E
330
18CDE
100
AcDbEntity
  8
0
 62
     5
370
    30
100
AcDbText
 10
9280.702079
 20
-14365.5625
 30
0.0
 40
1.125
  1
33,34
  7
STD SHEET
 72
     1
 11
9283.076087
 21
-14365.0
 31
0.0
100
AcDbText
 73
     2
  0
TEXT
  5
1896F
330
18CDE
100
AcDbEntity
  8
0
 62
     5
370
    30
100
AcDbText
 10
9281.548027
 20
-14371.5625
 30
0.0
 40
1.125
  1
458
  7
STD SHEET
 72
     1
 11
9283.076087
 21
-14371.0
 31
0.0
100
AcDbText
 73
     2
  0
TEXT
  5
18970
330
18CDE
100
AcDbEntity
  8
0
 62
     5
370
    30
100
AcDbText
 10
9281.742965
 20
-14377.5625
 30
0.0
 40
1.125
  1
417
  7
STD SHEET
 72
     1
 11
9283.076087
 21
-14377.0
 31
0.0
100
AcDbText
 73
     2
  0
TEXT
  5
18971
330
18CDE
100
AcDbEntity
  8
0
 62
     5
370
    30
100
AcDbText
 10
9281.406372
 20
-14383.5625
 30
0.0
 40
1.125
  1
1173
  7
STD SHEET
 72
     1
 11
9283.076087
 21
-14383.0
 31
0.0
100
AcDbText
 73
     2
  0
TEXT
  5
18972
330
18CDE
100
AcDbEntity
  8
0
 62
     5
370
    30
100
AcDbText
 10
9281.215896
 20
-14389.5625
 30
0.0
 40
1.125
  1
1280
  7
STD SHEET
 72
     1
 11
9283.076087
 21
-14389.0
 31
0.0
100
AcDbText
 73
     2
  0
MTEXT
  5
18973
330
18CDE
100
AcDbEntity
  8
0
 62
     2
370
    30
100
AcDbMText
 10
9283.075806
 20
-14423.014472
 30
0.0
 40
1.125
 41
0.0
 71
     5
 72
     1
  1
\C5;6 - #6\Px 8'-0"
  7
STD SHEET
 73
     2
 44
1.133333
  0
MTEXT
  5
18976
330
18CDE
100
AcDbEntity
  8
0
 62
     5
370
    30
100
AcDbMText
 10
9283.075806
 20
-14417.016336
 30
0.0
 40
1.125
 41
0.0
 71
     5
 72
     1
  1
3 - #4\Px 7'-6"
  7
STD SHEET
 73
     2
 44
1.133333
  0
TEXT
  5
18979
330
18CDE
100
AcDbEntity
  8
0
 62
     5
370
    30
100
AcDbText
 10
9281.295616
 20
-14428.569833
 30
0.0
 40
1.125
  1
0.25
  7
STD SHEET
 72
     1
 11
9283.076087
 21
-14428.007333
 31
0.0
100
AcDbText
 73
     2
  0
TEXT
  5
1897A
330
18CDE
100
AcDbEntity
  8
0
 62
     5
370
    30
100
AcDbText
 10
9281.291221
 20
-14432.557421
 30
0.0
 40
1.125
  1
0.27
  7
STD SHEET
 72
     1
 11
9283.076087
 21
-14431.994921
 31
0.0
100
AcDbText
 73
     2
  0
TEXT
  5
1897B
330
18CDE
100
AcDbEntity
  8
0
 62
     5
370
    30
100
AcDbText
 10
9281.499412
 20
-14436.578518
 30
0.0
 40
1.125
  1
0.01
  7
STD SHEET
 72
     1
 11
9283.076087
 21
-14436.016018
 31
0.0
100
AcDbText
 73
     2
  0
TEXT
  5
1897D
330
18CDE
100
AcDbEntity
  8
0
 62
     5
370
    30
100
AcDbText
 10
9294.253942
 20
-14335.565217
 30
0.0
 40
1.125
  1
16
  7
STD SHEET
 72
     1
 11
9294.967023
 21
-14335.002717
 31
0.0
100
AcDbText
 73
     2
  0
MTEXT
  5
1897E
330
18CDE
100
AcDbEntity
  8
0
 62
     5
370
    30
100
AcDbMText
 10
9294.966742
 20
-14341.084626
 30
0.0
 40
1.125
 41
0.0
 71
     5
 72
     1
  1
1,2,5,6,9,10,\P13,14
  7
STD SHEET
 73
     2
 44
1.133333
  0
MTEXT
  5
18981
330
18CDE
100
AcDbEntity
  8
0
 62
     5
370
    30
100
AcDbMText
 10
9294.966742
 20
-14346.982235
 30
0.0
 40
1.125
 41
0.0
 71
     5
 72
     1
  1
15,16,21,22\P27,28
  7
STD SHEET
 73
     2
 44
1.133333
  0
TEXT
  5
18984
330
18CDE
100
AcDbEntity
  8
0
 62
     5
370
    30
100
AcDbText
 10
9292.593015
 20
-14365.505633
 30
0.0
 40
1.125
  1
33,34
  7
STD SHEET
 72
     1
 11
9294.967023
 21
-14364.943133
 31
0.0
100
AcDbText
 73
     2
  0
TEXT
  5
18985
330
18CDE
100
AcDbEntity
  8
0
 62
     5
370
    30
100
AcDbText
 10
9293.664869
 20
-14371.537278
 30
0.0
 40
1.125
  1
521
  7
STD SHEET
 72
     1
 11
9294.967023
 21
-14370.974778
 31
0.0
100
AcDbText
 73
     2
  0
TEXT
  5
18986
330
18CDE
100
AcDbEntity
  8
0
 62
     5
370
    30
100
AcDbText
 10
9293.465604
 20
-14377.501905
 30
0.0
 40
1.125
  1
468
  7
STD SHEET
 72
     1
 11
9294.967023
 21
-14376.939405
 31
0.0
100
AcDbText
 73
     2
  0
TEXT
  5
18987
330
18CDE
100
AcDbEntity
  8
0
 62
     5
370
    30
100
AcDbText
 10
9293.049223
 20
-14383.466532
 30
0.0
 40
1.125
  1
1244
  7
STD SHEET
 72
     1
 11
9294.967023
 21
-14382.904032
 31
0.0
100
AcDbText
 73
     2
  0
TEXT
  5
18988
330
18CDE
100
AcDbEntity
  8
0
 62
     5
370
    30
100
AcDbText
 10
9293.071401
 20
-14389.565195
 30
0.0
 40
1.125
  1
1478
  7
STD SHEET
 72
     1
 11
9294.967023
 21
-14389.002695
 31
0.0
100
AcDbText
 73
     2
  0
MTEXT
  5
18989
330
18CDE
100
AcDbEntity
  8
0
 62
     5
370
    30
100
AcDbMText
 10
9294.966742
 20
-14417.016336
 30
0.0
 40
1.125
 41
0.0
 71
     5
 72
     1
  1
3 -#4\Px 7'-6"
  7
STD SHEET
 73
     2
 44
1.133333
  0
MTEXT
  5
1898C
330
18CDE
100
AcDbEntity
  8
0
 62
     2
370
    30
100
AcDbMText
 10
9294.966742
 20
-14422.980962
 30
0.0
 40
1.125
 41
0.0
 71
     5
 72
     1
  1
\C5;6 - #5\Px 8'-0"
  7
STD SHEET
 73
     2
 44
1.133333
  0
TEXT
  5
1898F
330
18CDE
100
AcDbEntity
  8
0
 62
     5
370
    30
100
AcDbText
 10
9293.213125
 20
-14428.502815
 30
0.0
 40
1.125
  1
0.39
  7
STD SHEET
 72
     1
 11
9294.967023
 21
-14427.940315
 31
0.0
100
AcDbText
 73
     2
  0
TEXT
  5
18990
330
18CDE
100
AcDbEntity
  8
0
 62
     5
370
    30
100
AcDbText
 10
9293.186552
 20
-14432.456894
 30
0.0
 40
1.125
  1
0.49
  7
STD SHEET
 72
     1
 11
9294.967023
 21
-14431.894394
 31
0.0
100
AcDbText
 73
     2
  0
TEXT
  5
18991
330
18CDE
100
AcDbEntity
  8
0
 62
     5
370
    30
100
AcDbText
 10
9293.182157
 20
-14436.410972
 30
0.0
 40
1.125
  1
0.27
  7
STD SHEET
 72
     1
 11
9294.967023
 21
-14435.848472
 31
0.0
100
AcDbText
 73
     2
  0
TEXT
  5
18993
330
18CDE
100
AcDbEntity
  8
0
 62
     5
370
    30
100
AcDbText
 10
9306.253942
 20
-14335.565217
 30
0.0
 40
1.125
  1
16
  7
STD SHEET
 72
     1
 11
9306.967023
 21
-14335.002717
 31
0.0
100
AcDbText
 73
     2
  0
MTEXT
  5
18994
330
18CDE
100
AcDbEntity
  8
0
 62
     5
370
    30
100
AcDbMText
 10
9306.966742
 20
-14341.017608
 30
0.0
 40
1.125
 41
0.0
 71
     5
 72
     1
  1
1,2,5,6,9,10,\P13,14
  7
STD SHEET
 73
     2
 44
1.133333
  0
MTEXT
  5
18997
330
18CDE
100
AcDbEntity
  8
0
 62
     5
370
    30
100
AcDbMText
 10
9306.966742
 20
-14346.982235
 30
0.0
 40
1.125
 41
0.0
 71
     5
 72
     1
  1
15,16,21,22,\P27,28
  7
STD SHEET
 73
     2
 44
1.133333
  0
TEXT
  5
1899A
330
18CDE
100
AcDbEntity
  8
0
 62
     5
370
    30
100
AcDbText
 10
9304.593015
 20
-14365.572652
 30
0.0
 40
1.125
  1
33,34
  7
STD SHEET
 72
     1
 11
9306.967023
 21
-14365.010152
 31
0.0
100
AcDbText
 73
     2
  0
TEXT
  5
1899B
330
18CDE
100
AcDbEntity
  8
0
 62
     5
370
    30
100
AcDbText
 10
9305.664869
 20
-14371.403242
 30
0.0
 40
1.125
  1
521
  7
STD SHEET
 72
     1
 11
9306.967023
 21
-14370.840742
 31
0.0
100
AcDbText
 73
     2
  0
TEXT
  5
1899C
330
18CDE
100
AcDbEntity
  8
0
 62
     5
370
    30
100
AcDbText
 10
9305.439031
 20
-14377.501905
 30
0.0
 40
1.125
  1
470
  7
STD SHEET
 72
     1
 11
9306.967023
 21
-14376.939405
 31
0.0
100
AcDbText
 73
     2
  0
TEXT
  5
1899E
330
18CDE
100
AcDbEntity
  8
0
 62
     5
370
    30
100
AcDbText
 10
9305.301702
 20
-14383.399514
 30
0.0
 40
1.125
  1
1312
  7
STD SHEET
 72
     1
 11
9306.967023
 21
-14382.837014
 31
0.0
100
AcDbText
 73
     2
  0
TEXT
  5
1899F
330
18CDE
100
AcDbEntity
  8
0
 62
     5
370
    30
100
AcDbText
 10
9305.071401
 20
-14389.431159
 30
0.0
 40
1.125
  1
1478
  7
STD SHEET
 72
     1
 11
9306.967023
 21
-14388.868659
 31
0.0
100
AcDbText
 73
     2
  0
MTEXT
  5
189A0
330
18CDE
100
AcDbEntity
  8
0
 62
     5
370
    30
100
AcDbMText
 10
9306.966742
 20
-14416.882299
 30
0.0
 40
1.125
 41
0.0
 71
     5
 72
     1
  1
3 - #4\Px 8'-0"
  7
STD SHEET
 73
     2
 44
1.133333
  0
MTEXT
  5
189A3
330
18CDE
100
AcDbEntity
  8
0
 62
     2
370
    30
100
AcDbMText
 10
9306.966742
 20
-14422.846926
 30
0.0
 40
1.125
 41
0.0
 71
     5
 72
     1
  1
\C5;6 - #6\Px 8'-0"
  7
STD SHEET
 73
     2
 44
1.133333
  0
TEXT
  5
189A6
330
18CDE
100
AcDbEntity
  8
0
 62
     5
370
    30
100
AcDbText
 10
9305.186552
 20
-14428.502815
 30
0.0
 40
1.125
  1
0.38
  7
STD SHEET
 72
     1
 11
9306.967023
 21
-14427.940315
 31
0.0
100
AcDbText
 73
     2
  0
TEXT
  5
189A7
330
18CDE
100
AcDbEntity
  8
0
 62
     5
370
    30
100
AcDbText
 10
9305.133405
 20
-14432.389875
 30
0.0
 40
1.125
  1
0.44
  7
STD SHEET
 72
     1
 11
9306.967023
 21
-14431.827375
 31
0.0
100
AcDbText
 73
     2
  0
TEXT
  5
189A8
330
18CDE
100
AcDbEntity
  8
0
 62
     5
370
    30
100
AcDbText
 10
9305.359312
 20
-14436.410972
 30
0.0
 40
1.125
  1
0.14
  7
STD SHEET
 72
     1
 11
9306.967023
 21
-14435.848472
 31
0.0
100
AcDbText
 73
     2
  0
TEXT
  5
189AA
330
18CDE
100
AcDbEntity
  8
0
 62
     5
370
    30
100
AcDbText
 10
9318.227369
 20
-14335.565217
 30
0.0
 40
1.125
  1
18
  7
STD SHEET
 72
     1
 11
9318.967023
 21
-14335.002717
 31
0.0
100
AcDbText
 73
     2
  0
MTEXT
  5
189AB
330
18CDE
100
AcDbEntity
  8
0
 62
     5
370
    30
100
AcDbMText
 10
9318.966742
 20
-14340.950589
 30
0.0
 40
1.125
 41
0.0
 71
     5
 72
     1
  1
1,2,5,6,9,10,\P13,14
  7
STD SHEET
 73
     2
 44
1.133333
  0
MTEXT
  5
189AE
330
18CDE
100
AcDbEntity
  8
0
 62
     5
370
    30
100
AcDbMText
 10
9318.966742
 20
-14346.915216
 30
0.0
 40
1.125
 41
0.0
 71
     5
 72
     1
  1
15,16,19,20,\P23,24,27,28
  7
STD SHEET
 73
     2
 44
1.133333
  0
TEXT
  5
189B1
330
18CDE
100
AcDbEntity
  8
0
 62
     5
370
    30
100
AcDbText
 10
9316.593015
 20
-14365.438615
 30
0.0
 40
1.125
  1
33,34
  7
STD SHEET
 72
     1
 11
9318.967023
 21
-14364.876115
 31
0.0
100
AcDbText
 73
     2
  0
TEXT
  5
189B2
330
18CDE
100
AcDbEntity
  8
0
 62
     5
370
    30
100
AcDbText
 10
9317.465536
 20
-14371.403242
 30
0.0
 40
1.125
  1
583
  7
STD SHEET
 72
     1
 11
9318.967023
 21
-14370.840742
 31
0.0
100
AcDbText
 73
     2
  0
TEXT
  5
189B3
330
18CDE
100
AcDbEntity
  8
0
 62
     5
370
    30
100
AcDbText
 10
9317.664869
 20
-14377.501905
 30
0.0
 40
1.125
  1
521
  7
STD SHEET
 72
     1
 11
9318.967023
 21
-14376.939405
 31
0.0
100
AcDbText
 73
     2
  0
TEXT
  5
189B4
330
18CDE
100
AcDbEntity
  8
0
 62
     5
370
    30
100
AcDbText
 10
9317.102369
 20
-14383.332495
 30
0.0
 40
1.125
  1
1383
  7
STD SHEET
 72
     1
 11
9318.967023
 21
-14382.769995
 31
0.0
100
AcDbText
 73
     2
  0
TEXT
  5
189B5
330
18CDE
100
AcDbEntity
  8
0
 62
     5
370
    30
100
AcDbText
 10
9317.155584
 20
-14389.431159
 30
0.0
 40
1.125
  1
1656
  7
STD SHEET
 72
     1
 11
9318.967023
 21
-14388.868659
 31
0.0
100
AcDbText
 73
     2
  0
MTEXT
  5
189B6
330
18CDE
100
AcDbEntity
  8
0
 62
     5
370
    30
100
AcDbMText
 10
9318.966742
 20
-14416.882299
 30
0.0
 40
1.125
 41
0.0
 71
     5
 72
     1
  1
3 - #4\Px 8'-0"
  7
STD SHEET
 73
     2
 44
1.133333
  0
MTEXT
  5
189B9
330
18CDE
100
AcDbEntity
  8
0
 62
     2
370
    30
100
AcDbMText
 10
9318.966742
 20
-14422.980962
 30
0.0
 40
1.125
 41
0.0
 71
     5
 72
     1
  1
\C5;4 - #6\Px 9'-0"
  7
STD SHEET
 73
     2
 44
1.133333
  0
TEXT
  5
189BC
330
18CDE
100
AcDbEntity
  8
0
 62
     5
370
    30
100
AcDbText
 10
9317.385885
 20
-14428.502815
 30
0.0
 40
1.125
  1
0.51
  7
STD SHEET
 72
     1
 11
9318.967023
 21
-14427.940315
 31
0.0
100
AcDbText
 73
     2
  0
TEXT
  5
189BD
330
18CDE
100
AcDbEntity
  8
0
 62
     5
370
    30
100
AcDbText
 10
9317.239767
 20
-14432.456894
 30
0.0
 40
1.125
  1
0.66
  7
STD SHEET
 72
     1
 11
9318.967023
 21
-14431.894394
 31
0.0
100
AcDbText
 73
     2
  0
TEXT
  5
189BE
330
18CDE
100
AcDbEntity
  8
0
 62
     5
370
    30
100
AcDbText
 10
9317.186552
 20
-14436.47799
 30
0.0
 40
1.125
  1
0.38
  7
STD SHEET
 72
     1
 11
9318.967023
 21
-14435.91549
 31
0.0
100
AcDbText
 73
     2
  0
TEXT
  5
189C0
330
18CDE
100
AcDbEntity
  8
0
 62
     5
370
    30
100
AcDbText
 10
9330.260834
 20
-14335.414426
 30
0.0
 40
1.125
  1
18
  7
STD SHEET
 72
     1
 11
9331.000488
 21
-14334.851926
 31
0.0
100
AcDbText
 73
     2
  0
MTEXT
  5
189C1
330
18CDE
100
AcDbEntity
  8
0
 62
     5
370
    30
100
AcDbMText
 10
9331.000207
 20
-14340.950589
 30
0.0
 40
1.125
 41
0.0
 71
     5
 72
     1
  1
1,2,5,6,9,10,\P13,14
  7
STD SHEET
 73
     2
 44
1.133333
  0
MTEXT
  5
189C4
330
18CDE
100
AcDbEntity
  8
0
 62
     5
370
    30
100
AcDbMText
 10
9331.000207
 20
-14346.982235
 30
0.0
 40
1.125
 41
0.0
 71
     5
 72
     1
  1
15,16,19,20,\P23,24,27,28
  7
STD SHEET
 73
     2
 44
1.133333
  0
TEXT
  5
189C7
330
18CDE
100
AcDbEntity
  8
0
 62
     5
370
    30
100
AcDbText
 10
9328.62648
 20
-14365.438615
 30
0.0
 40
1.125
  1
33,34
  7
STD SHEET
 72
     1
 11
9331.000488
 21
-14364.876115
 31
0.0
100
AcDbText
 73
     2
  0
TEXT
  5
189C8
330
18CDE
100
AcDbEntity
  8
0
 62
     5
370
    30
100
AcDbText
 10
9329.472428
 20
-14371.537278
 30
0.0
 40
1.125
  1
584
  7
STD SHEET
 72
     1
 11
9331.000488
 21
-14370.974778
 31
0.0
100
AcDbText
 73
     2
  0
TEXT
  5
189C9
330
18CDE
100
AcDbEntity
  8
0
 62
     5
370
    30
100
AcDbText
 10
9329.499001
 20
-14377.501905
 30
0.0
 40
1.125
  1
522
  7
STD SHEET
 72
     1
 11
9331.000488
 21
-14376.939405
 31
0.0
100
AcDbText
 73
     2
  0
TEXT
  5
189CA
330
18CDE
100
AcDbEntity
  8
0
 62
     5
370
    30
100
AcDbText
 10
9329.082688
 20
-14383.466532
 30
0.0
 40
1.125
  1
1454
  7
STD SHEET
 72
     1
 11
9331.000488
 21
-14382.904032
 31
0.0
100
AcDbText
 73
     2
  0
TEXT
  5
189CB
330
18CDE
100
AcDbEntity
  8
0
 62
     5
370
    30
100
AcDbText
 10
9329.189049
 20
-14389.565195
 30
0.0
 40
1.125
  1
1656
  7
STD SHEET
 72
     1
 11
9331.000488
 21
-14389.002695
 31
0.0
100
AcDbText
 73
     2
  0
MTEXT
  5
189CC
330
18CDE
100
AcDbEntity
  8
0
 62
     5
370
    30
100
AcDbMText
 10
9331.000207
 20
-14416.949317
 30
0.0
 40
1.125
 41
0.0
 71
     5
 72
     1
  1
3 - #4\Px 8'-0"
  7
STD SHEET
 73
     2
 44
1.133333
  0
MTEXT
  5
189CF
330
18CDE
100
AcDbEntity
  8
0
 62
     2
370
    30
100
AcDbMText
 10
9331.000207
 20
-14422.980962
 30
0.0
 40
1.125
 41
0.0
 71
     5
 72
     1
  1
\C5;4 - #6\Px 9'-0"
  7
STD SHEET
 73
     2
 44
1.133333
  0
TEXT
  5
189D2
330
18CDE
100
AcDbEntity
  8
0
 62
     5
370
    30
100
AcDbText
 10
9329.22448
 20
-14428.502815
 30
0.0
 40
1.125
  1
0.50
  7
STD SHEET
 72
     1
 11
9331.000488
 21
-14427.940315
 31
0.0
100
AcDbText
 73
     2
  0
TEXT
  5
189D3
330
18CDE
100
AcDbEntity
  8
0
 62
     5
370
    30
100
AcDbText
 10
9329.24659
 20
-14432.456894
 30
0.0
 40
1.125
  1
0.59
  7
STD SHEET
 72
     1
 11
9331.000488
 21
-14431.894394
 31
0.0
100
AcDbText
 73
     2
  0
TEXT
  5
189D4
330
18CDE
100
AcDbEntity
  8
0
 62
     5
370
    30
100
AcDbText
 10
9329.220017
 20
-14436.47799
 30
0.0
 40
1.125
  1
0.23
  7
STD SHEET
 72
     1
 11
9331.000488
 21
-14435.91549
 31
0.0
100
AcDbText
 73
     2
  0
TEXT
  5
189D6
330
18CDE
100
AcDbEntity
  8
0
 62
     5
370
    30
100
AcDbText
 10
9342.257106
 20
-14335.548463
 30
0.0
 40
1.125
  1
18
  7
STD SHEET
 72
     1
 11
9342.99676
 21
-14334.985963
 31
0.0
100
AcDbText
 73
     2
  0
MTEXT
  5
189D7
330
18CDE
100
AcDbEntity
  8
0
 62
     5
370
    30
100
AcDbMText
 10
9342.996479
 20
-14340.950589
 30
0.0
 40
1.125
 41
0.0
 71
     5
 72
     1
  1
1,2,5,6,9,10,\P13,14
  7
STD SHEET
 73
     2
 44
1.133333
  0
MTEXT
  5
189DA
330
18CDE
100
AcDbEntity
  8
0
 62
     5
370
    30
100
AcDbMText
 10
9342.996479
 20
-14346.982235
 30
0.0
 40
1.125
 41
0.0
 71
     5
 72
     1
  1
15,16,19,20,\P23,24,27,28
  7
STD SHEET
 73
     2
 44
1.133333
  0
TEXT
  5
189DD
330
18CDE
100
AcDbEntity
  8
0
 62
     5
370
    30
100
AcDbText
 10
9340.622752
 20
-14365.438615
 30
0.0
 40
1.125
  1
33,34
  7
STD SHEET
 72
     1
 11
9342.99676
 21
-14364.876115
 31
0.0
100
AcDbText
 73
     2
  0
TEXT
  5
189DE
330
18CDE
100
AcDbEntity
  8
0
 62
     5
370
    30
100
AcDbText
 10
9341.495273
 20
-14371.47026
 30
0.0
 40
1.125
  1
585
  7
STD SHEET
 72
     1
 11
9342.99676
 21
-14370.90776
 31
0.0
100
AcDbText
 73
     2
  0
TEXT
  5
189DF
330
18CDE
100
AcDbEntity
  8
0
 62
     5
370
    30
100
AcDbText
 10
9341.468699
 20
-14377.568923
 30
0.0
 40
1.125
  1
524
  7
STD SHEET
 72
     1
 11
9342.99676
 21
-14377.006423
 31
0.0
100
AcDbText
 73
     2
  0
TEXT
  5
189E0
330
18CDE
100
AcDbEntity
  8
0
 62
     5
370
    30
100
AcDbText
 10
9341.127711
 20
-14383.53355
 30
0.0
 40
1.125
  1
1527
  7
STD SHEET
 72
     1
 11
9342.99676
 21
-14382.97105
 31
0.0
100
AcDbText
 73
     2
  0
TEXT
  5
189E1
330
18CDE
100
AcDbEntity
  8
0
 62
     5
370
    30
100
AcDbText
 10
9341.185321
 20
-14389.498177
 30
0.0
 40
1.125
  1
1656
  7
STD SHEET
 72
     1
 11
9342.99676
 21
-14388.935677
 31
0.0
100
AcDbText
 73
     2
  0
MTEXT
  5
189E2
330
18CDE
100
AcDbEntity
  8
0
 62
     5
370
    30
100
AcDbMText
 10
9342.996479
 20
-14416.949317
 30
0.0
 40
1.125
 41
0.0
 71
     5
 72
     1
  1
3 - #4\Px 8'-6"
  7
STD SHEET
 73
     2
 44
1.133333
  0
MTEXT
  5
189E5
330
18CDE
100
AcDbEntity
  8
0
 62
     2
370
    30
100
AcDbMText
 10
9342.996479
 20
-14422.913944
 30
0.0
 40
1.125
 41
0.0
 71
     5
 72
     1
  1
\C5;6 - #6\Px 9'-0"
  7
STD SHEET
 73
     2
 44
1.133333
  0
TEXT
  5
189E8
330
18CDE
100
AcDbEntity
  8
0
 62
     5
370
    30
100
AcDbText
 10
9341.189715
 20
-14428.502815
 30
0.0
 40
1.125
  1
0.48
  7
STD SHEET
 72
     1
 11
9342.99676
 21
-14427.940315
 31
0.0
100
AcDbText
 73
     2
  0
TEXT
  5
189E9
330
18CDE
100
AcDbEntity
  8
0
 62
     5
370
    30
100
AcDbText
 10
9341.216289
 20
-14432.456894
 30
0.0
 40
1.125
  1
0.52
  7
STD SHEET
 72
     1
 11
9342.99676
 21
-14431.894394
 31
0.0
100
AcDbText
 73
     2
  0
TEXT
  5
189EA
330
18CDE
100
AcDbEntity
  8
0
 62
     5
370
    30
100
AcDbText
 10
9341.247325
 20
-14436.47799
 30
0.0
 40
1.125
  1
0.06
  7
STD SHEET
 72
     1
 11
9342.99676
 21
-14435.91549
 31
0.0
100
AcDbText
 73
     2
  0
TEXT
  5
18A6C
330
18CDE
100
AcDbEntity
  8
0
  6
Continuous
 62
     5
370
    30
100
AcDbText
 10
9269.495268
 20
-14487.009636
 30
0.0
 40
1.125
  1
6.
  7
STD SHEET
 11
9269.495268
 21
-14485.884636
 31
0.0
100
AcDbText
 73
     3
  0
TEXT
  5
18A6D
330
18CDE
100
AcDbEntity
  8
0
  6
Continuous
 62
     5
370
    30
100
AcDbText
 10
9269.495268
 20
-14494.344398
 30
0.0
 40
1.125
  1
7.
  7
STD SHEET
 11
9269.495268
 21
-14493.219398
 31
0.0
100
AcDbText
 73
     3
  0
MTEXT
  5
180D4
330
18CDE
100
AcDbEntity
  8
0
  6
Continuous
 62
     5
370
    30
100
AcDbMText
 10
9175.151091
 20
-14449.364825
 30
0.0
 40
1.125
 41
0.0
 71
     4
 72
     1
  1
NUMBER & SPACING\POF TL-2 GUARDRAIL\PINSERTS\P\PSEE NOTE 6
  7
STD SHEET
 73
     2
 44
1.133333
  0
TEXT
  5
18A79
330
18CDE
100
AcDbEntity
  8
0
 62
     5
370
    30
100
AcDbText
 10
9221.434637
 20
-14461.497957
 30
0.0
 40
1.125
  1
19.9
  7
STD SHEET
 72
     1
 11
9222.967023
 21
-14460.935457
 31
0.0
100
AcDbText
 73
     2
  0
TEXT
  5
18A7A
330
18CDE
100
AcDbEntity
  8
0
 62
     5
370
    30
100
AcDbText
 10
9233.366281
 20
-14461.497957
 30
0.0
 40
1.125
  1
20.6
  7
STD SHEET
 72
     1
 11
9235.120179
 21
-14460.935457
 31
0.0
100
AcDbText
 73
     2
  0
TEXT
  5
18A7B
330
18CDE
100
AcDbEntity
  8
0
 62
     5
370
    30
100
AcDbText
 10
9245.378999
 20
-14461.497957
 30
0.0
 40
1.125
  1
21.3
  7
STD SHEET
 72
     1
 11
9246.964601
 21
-14460.935457
 31
0.0
100
AcDbText
 73
     2
  0
TEXT
  5
18A7C
330
18CDE
100
AcDbEntity
  8
0
 62
     5
370
    30
100
AcDbText
 10
9257.686574
 20
-14461.497957
 30
0.0
 40
1.125
  1
22.0
  7
STD SHEET
 72
     1
 11
9259.467046
 21
-14460.935457
 31
0.0
100
AcDbText
 73
     2
  0
TEXT
  5
18A7D
330
18CDE
100
AcDbEntity
  8
0
 62
     5
370
    30
100
AcDbText
 10
9268.995719
 20
-14461.497957
 30
0.0
 40
1.125
  1
22.7
  7
STD SHEET
 72
     1
 11
9270.785049
 21
-14460.935457
 31
0.0
100
AcDbText
 73
     2
  0
TEXT
  5
18A7E
330
18CDE
100
AcDbEntity
  8
0
 62
     5
370
    30
100
AcDbText
 10
9281.344381
 20
-14461.497957
 30
0.0
 40
1.125
  1
23.4
  7
STD SHEET
 72
     1
 11
9283.155889
 21
-14460.935457
 31
0.0
100
AcDbText
 73
     2
  0
TEXT
  5
18A7F
330
18CDE
100
AcDbEntity
  8
0
 62
     5
370
    30
100
AcDbText
 10
9293.688648
 20
-14461.497957
 30
0.0
 40
1.125
  1
24.4
  7
STD SHEET
 72
     1
 11
9295.52673
 21
-14460.935457
 31
0.0
100
AcDbText
 73
     2
  0
TEXT
  5
18A80
330
18CDE
100
AcDbEntity
  8
0
 62
     5
370
    30
100
AcDbText
 10
9305.259131
 20
-14461.497957
 30
0.0
 40
1.125
  1
25.1
  7
STD SHEET
 72
     1
 11
9306.844733
 21
-14460.935457
 31
0.0
100
AcDbText
 73
     2
  0
TEXT
  5
18A81
330
18CDE
100
AcDbEntity
  8
0
 62
     5
370
    30
100
AcDbText
 10
9317.299033
 20
-14461.497957
 30
0.0
 40
1.125
  1
25.8
  7
STD SHEET
 72
     1
 11
9319.083968
 21
-14460.935457
 31
0.0
100
AcDbText
 73
     2
  0
TEXT
  5
18A82
330
18CDE
100
AcDbEntity
  8
0
 62
     5
370
    30
100
AcDbText
 10
9329.696515
 20
-14461.497957
 30
0.0
 40
1.125
  1
26.5
  7
STD SHEET
 72
     1
 11
9331.454809
 21
-14460.935457
 31
0.0
100
AcDbText
 73
     2
  0
TEXT
  5
18A83
330
18CDE
100
AcDbEntity
  8
0
 62
     5
370
    30
100
AcDbText
 10
9340.983482
 20
-14461.497957
 30
0.0
 40
1.125
  1
27.2
  7
STD SHEET
 72
     1
 11
9342.772811
 21
-14460.935457
 31
0.0
100
AcDbText
 73
     2
  0
TEXT
  5
18A88
330
18CDE
100
AcDbEntity
  8
0
  6
Continuous
 62
     5
370
    30
100
AcDbText
 10
9166.907083
 20
-14488.007727
 30
0.0
 40
1.125
  1
2.
  7
STD SHEET
 11
9166.907083
 21
-14486.882727
 31
0.0
100
AcDbText
 73
     3
  0
TEXT
  5
18A89
330
18CDE
100
AcDbEntity
  8
0
  6
Continuous
 62
     5
370
    30
100
AcDbText
 10
9166.907083
 20
-14500.007727
 30
0.0
 40
1.125
  1
3.
  7
STD SHEET
 11
9166.907083
 21
-14498.882727
 31
0.0
100
AcDbText
 73
     3
  0
TEXT
  5
18A9D
330
18CDE
100
AcDbEntity
  8
0
  6
Continuous
 62
     5
370
    30
100
AcDbText
 10
9168.889901
 20
-14484.717623
 30
0.0
 40
1.125
  1
FOR LONGER ENDBLOCK, ADD 596 LBS/LF/END.
  7
STD SHEET
 11
9168.889901
 21
-14483.592623
 31
0.0
100
AcDbText
 73
     3
  0
MTEXT
  5
1894E
330
18CDE
100
AcDbEntity
  8
0
 62
     2
370
    30
100
AcDbMText
 10
9258.966742
 20
-14422.980962
 30
0.0
 40
1.125
 41
0.0
 71
     5
 72
     1
  1
\C5;6 - #6\Px 8'-0"
  7
STD SHEET
 73
     2
 44
1.133333
  0
TEXT
  5
18B40
330
18CDE
100
AcDbEntity
  8
0
 62
     5
370
    30
100
AcDbText
 10
9167.088033
 20
-14468.784027
 30
0.0
 40
1.125
  1
NOTES
  7
STD SHEET
 11
9167.088033
 21
-14468.221527
 31
0.0
100
AcDbText
 73
     2
  0
LINE
  5
18BB7
330
18CDE
100
AcDbEntity
  8
0
  6
Continuous
 62
     6
370
    40
100
AcDbLine
 10
9217.09023
 20
-14414.027307
 30
0.0
 11
9217.09023
 21
-14324.027307
 31
0.0
  0
LINE
  5
185A4
330
18CDE
100
AcDbEntity
  8
0
  6
Continuous
 62
     6
370
    40
100
AcDbLine
 10
9217.09023
 20
-14464.027307
 30
0.0
 11
9217.09023
 21
-14414.027307
 31
0.0
  0
TEXT
  5
18A56
330
18CDE
100
AcDbEntity
  8
0
 62
     5
370
    30
100
AcDbText
 10
9405.157069
 20
-14504.279916
 30
0.0
 40
1.125
  1
07-02-07
  7
STD SHEET
 11
9405.157069
 21
-14503.154916
 31
0.0
100
AcDbText
 73
     3
  0
MTEXT
  5
18BC3
330
18CDE
100
AcDbEntity
  8
0
 62
     5
370
    30
100
AcDbMText
 10
9270.828387
 20
-14416.949317
 30
0.0
 40
1.125
 41
0.0
 71
     5
 72
     1
  1
3 - #4\Px 7'-0"
  7
STD SHEET
 73
     2
 44
1.133333
  0
MTEXT
  5
18A8A
330
18CDE
100
AcDbEntity
  8
0
  6
Continuous
 62
     5
370
    30
100
AcDbMText
 10
9168.907083
 20
-14486.882727
 30
0.0
 40
1.125
 41
0.0
 71
     1
 72
     1
  3
DESIGNERS SHOULD NOTE THAT DATA IN STANDARD TABLE IS BASED ON EVEN SPAN LENGTHS,\PA TWO LANE STRUCTURE 8 BEAMS WIDE AND ZERO SKEW.  SUPERIMPOSED DEAD LOADS INCLUDE\PTYPE F PARAPET (321 PLF) AND A FWS OF 50 PSF.  FOR NON-STANDARD BRIDGES DATA SHOULD B
  1
E \PVERIFIED AND IF REQUIRED NEW DESIGN DATA ENTERED INTO BLANK COLUMNS.  IN NO CASE SHALL \PTHE STANDARD DESIGN TABLE BE ALTERED.
  7
Style-gen_eng
 73
     2
 44
1.133333
  0
MTEXT
  5
18A99
330
18CDE
100
AcDbEntity
  8
0
 62
     5
370
    30
100
AcDbMText
 10
9166.62916
 20
-14470.440416
 30
0.0
 40
1.125
 41
0.0
 71
     1
 72
     1
  1
  BEAM WEIGHTS LISTED IN THE DESIGN TABLE ARE BASED ON ZERO SKEW, 2 FT. LONG ENDBLOCK \P  AND DIAPHRAGMS SPACED @ 15 FT C/C.  WEIGHTS FOR SKEWED BEAMS, LONGER ENDBLOCKS AND \P  ADDITIONAL DIAPHRAGMS SHOULD BE ADJUSTED ACCORDINGLY.
  7
Style-gen_eng
 73
     2
 44
1.133333
  0
TEXT
  5
18C1E
330
18CDE
100
AcDbEntity
  8
0
 62
     5
370
    30
100
AcDbText
 10
9167.305782
 20
-14471.565416
 30
0.0
 40
1.125
  1
1.
  7
Style-gen_eng
 11
9167.305782
 21
-14470.440416
 31
0.0
100
AcDbText
 73
     3
  0
MTEXT
  5
18A6E
330
18CDE
100
AcDbEntity
  8
0
  6
Continuous
 62
     5
370
    30
100
AcDbMText
 10
9271.495268
 20
-14493.204643
 30
0.0
 40
1.125
 41
0.0
 71
     1
 72
     1
  1
THIS SHEET SHALL BE USED IN CONJUNCTION WITH STANDARD SHEETS  BR-B33A, BR-B100, BR-B101, BR-B102A & B,  \PBR-B103, BR-B104, BR-B105A & B AND BR-B106 AS APPLICABLE.
  7
Style-gen_eng
 73
     2
 44
1.133333
  0
MTEXT
  5
17E49
330
18CDE
100
AcDbEntity
  8
0
  6
Continuous
 62
     5
370
    30
100
AcDbMText
 10
9463.935738
 20
-14491.913752
 30
0.0
 40
0.7425
 41
0.0
 71
     4
 72
     1
  1
DESIGNED BY:TW/^J
  7
Style 2 - FS Sheet
 73
     2
 44
0.626828
  0
MTEXT
  5
17E4A
330
18CDE
100
AcDbEntity
  8
0
  6
Continuous
 62
     5
370
    30
100
AcDbMText
 10
9463.935738
 20
-14494.718098
 30
0.0
 40
0.7425
 41
0.0
 71
     4
 72
     1
  1
DRAWN BY:THB/^J
  7
Style 2 - FS Sheet
 73
     2
 44
0.626828
  0
MTEXT
  5
17E4B
330
18CDE
100
AcDbEntity
  8
0
  6
Continuous
 62
     5
370
    30
100
AcDbMText
 10
9463.935738
 20
-14497.759468
 30
0.0
 40
0.7425
 41
0.0
 71
     4
 72
     1
  1
CHECKED BY:TW/^J
  7
Style 2 - FS Sheet
 73
     2
 44
0.626828
  0
TEXT
  5
17E4C
330
18CDE
100
AcDbEntity
  8
0
  6
Continuous
 62
     5
370
    30
100
AcDbText
 10
9463.935738
 20
-14500.729707
 30
0.0
 40
0.7425
  1
REVIEWED BY:THB/
  7
Style 2 - FS Sheet
 11
9463.935738
 21
-14500.358457
 31
0.0
100
AcDbText
 73
     2
  0
INSERT
  5
18CCD
330
18CDE
100
AcDbEntity
  8
Level 1
370
    30
100
AcDbBlockReference
  2
Greg's Signature
 10
9385.696523
 20
-14497.439138
 30
0.0
 41
0.01016
 42
0.01016
 43
0.01016
  0
MTEXT
  5
18CD4
330
18CDE
100
AcDbEntity
  8
0
 62
     5
370
    30
100
AcDbMText
 10
9405.157069
 20
-14496.622094
 30
0.0
 40
1.125
 41
0.0
 71
     1
 72
     1
  1
\FITALIC_WORKING.shx;10-25-07
  7
STD SHEET
 73
     2
 44
0.722892
  0
ENDSEC
  0
SECTION
  2
OBJECTS
  0
DICTIONARY
  5
18CF1
330
0
100
AcDbDictionary
281
     1
  3
ACAD_GROUP
350
18CEF
  3
ACAD_LAYOUT
350
18CF2
  3
ACAD_MLINESTYLE
350
18CF0
  3
ACAD_PLOTSETTINGS
350
18CF3
  3
ACAD_PLOTSTYLENAME
350
18CF4
  3
AcadDim
350
18CFF
  3
DWGPROPS
350
18D07
  0
DICTIONARY
  5
18CF7
330
18CE6
100
AcDbDictionary
280
     1
281
     1
  3
ACAD_LAYERFILTERS
360
18CF8
  0
DICTIONARY
  5
18D08
330
18A71
100
AcDbDictionary
280
     1
281
     1
  3
ACAD_MTEXT_RT
360
18D09
  0
DICTIONARY
  5
18CEF
102
{ACAD_REACTORS
330
18CF1
102
}
330
18CF1
100
AcDbDictionary
281
     1
  0
DICTIONARY
  5
18CF2
102
{ACAD_REACTORS
330
18CF1
102
}
330
18CF1
100
AcDbDictionary
281
     1
  3
Layout1
350
18CE5
  3
Model
350
18CE1
  0
DICTIONARY
  5
18CF0
102
{ACAD_REACTORS
330
18CF1
102
}
330
18CF1
100
AcDbDictionary
281
     1
  3
Standard
350
18CDC
  0
DICTIONARY
  5
18CF3
102
{ACAD_REACTORS
330
18CF1
102
}
330
18CF1
100
AcDbDictionary
281
     1
  0
ACDBDICTIONARYWDFLT
  5
18CF4
102
{ACAD_REACTORS
330
18CF1
102
}
330
18CF1
100
AcDbDictionary
281
     1
  3
Normal
350
18CD7
100
AcDbDictionaryWithDefault
340
18CD7
  0
XRECORD
  5
18CFF
102
{ACAD_REACTORS
330
18CF1
102
}
330
18CF1
100
AcDbXrecord
280
     1
 90
   990106
  3
 
 60
     0
 61
     0
 62
     1
 63
     1
 64
     0
 65
     0
 66
     0
 67
     3
 68
     1
 69
     1
 70
     0
 71
     0
 72
     0
 40
0.0
170
     0
  0
XRECORD
  5
18D07
102
{ACAD_REACTORS
330
18CF1
102
}
330
18CF1
100
AcDbXrecord
280
     1
  1
DWGPROPS COOKIE
  2

  3

  4
rhill
  6

  7

  8

  9

300
=
301
=
302
=
303
=
304
=
305
=
306
=
307
=
308
=
309
=
 40
0.0
 41
2451789.537469
 42
2451789.537561
  1

 90
        0
  0
DICTIONARY
  5
18CF8
102
{ACAD_REACTORS
330
18CF7
102
}
330
18CF7
100
AcDbDictionary
281
     1
  0
XRECORD
  5
18D09
102
{ACAD_REACTORS
330
18D08
102
}
330
18D08
100
AcDbXrecord
280
     1
280
     1
 40
1744876.0
  1
\PDESIGNER INPUT VALUES OF NUMBER OF INSERTS, DISTANCE FROM END OF BEAM TO \{ FIRST INSERT, AND \{ FIRST INSERT\P\ptz;TO \{ SECOND INSERT. ABOVE VALUES SHALL BE BASED ON THE REQUIRED 6'-3" GUARDRAIL POST SPACING ACROSS\P\ptz;THE BRIDGE.
  0
LAYOUT
  5
18CE5
102
{ACAD_REACTORS
330
18CF2
330
18CF2
102
}
330
18CF2
100
AcDbPlotSettings
  1

  2

  4

  6

 40
0.0
 41
0.0
 42
0.0
 43
0.0
 44
0.0
 45
0.0
 46
0.0
 47
0.0
 48
0.0
 49
0.0
140
0.0
141
0.0
142
1.0
143
1.0
 70
   688
 72
     0
 73
     0
 74
     5
  7

 75
    16
147
1.0
148
0.0
149
0.0
100
AcDbLayout
  1
Layout1
 70
     1
 71
     1
 10
0.0
 20
0.0
 11
12.0
 21
9.0
 12
0.0
 22
0.0
 32
0.0
 14
1.000000E+20
 24
1.000000E+20
 34
1.000000E+20
 15
-1.000000E+20
 25
-1.000000E+20
 35
-1.000000E+20
146
0.0
 13
0.0
 23
0.0
 33
0.0
 16
1.0
 26
0.0
 36
0.0
 17
0.0
 27
1.0
 37
0.0
 76
     0
330
18CE2
  0
LAYOUT
  5
18CE1
102
{ACAD_REACTORS
330
18CF2
330
18CF2
102
}
330
18CF2
100
AcDbPlotSettings
  1

  2

  4

  6

 40
0.0
 41
0.0
 42
0.0
 43
0.0
 44
0.0
 45
0.0
 46
0.0
 47
0.0
 48
0.0
 49
0.0
140
0.0
141
0.0
142
1.0
143
1.0
 70
  1712
 72
     0
 73
     0
 74
     0
  7

 75
     0
147
1.0
148
0.0
149
0.0
100
AcDbLayout
  1
Model
 70
     1
 71
     0
 10
0.0
 20
0.0
 11
12.0
 21
9.0
 12
0.0
 22
0.0
 32
0.0
 14
0.0
 24
0.0
 34
0.0
 15
0.0
 25
0.0
 35
0.0
146
0.0
 13
0.0
 23
0.0
 33
0.0
 16
1.0
 26
0.0
 36
0.0
 17
0.0
 27
1.0
 37
0.0
 76
     0
330
18CDE
  0
MLINESTYLE
  5
18CDC
102
{ACAD_REACTORS
330
18CF0
102
}
330
18CF0
100
AcDbMlineStyle
  2
STANDARD
 70
     0
  3

 62
   256
 51
90.0
 52
90.0
 71
     2
 49
0.5
 62
   256
  6
BYLAYER
 49
-0.5
 62
   256
  6
BYLAYER
  0
ACDBPLACEHOLDER
  5
18CD7
102
{ACAD_REACTORS
330
18CF4
102
}
330
18CF4
  0
ENDSEC
  0
SECTION
  2
THUMBNAILIMAGE
 90
    21224
310
28000000B4000000700000000100080000000000C04E000000040000000400000001000009000000FFFFFF000078F800F8F8F800404040000000F800F800F800D878280018000000F8000000FFFFFF00FFFFFF00FFFFFF00FFFFFF00FFFFFF00FFFFFF00FFFFFF00FFFFFF00FFFFFF00FFFFFF00FFFFFF00FFFFFF00FFFFFF
310
00FFFFFF00FFFFFF00FFFFFF00FFFFFF00FFFFFF00FFFFFF00FFFFFF00FFFFFF00FFFFFF00FFFFFF00FFFFFF00FFFFFF00FFFFFF00FFFFFF00FFFFFF00FFFFFF00FFFFFF00FFFFFF00FFFFFF00FFFFFF00FFFFFF00FFFFFF00FFFFFF00FFFFFF00FFFFFF00FFFFFF00FFFFFF00FFFFFF00FFFFFF00FFFFFF00FFFFFF00FFFF
310
FF00FFFFFF00FFFFFF00FFFFFF00FFFFFF00FFFFFF00FFFFFF00FFFFFF00FFFFFF00FFFFFF00FFFFFF00FFFFFF00FFFFFF00FFFFFF00FFFFFF00FFFFFF00FFFFFF00FFFFFF00FFFFFF00FFFFFF00FFFFFF00FFFFFF00FFFFFF00FFFFFF00FFFFFF00FFFFFF00FFFFFF00FFFFFF00FFFFFF00FFFFFF00FFFFFF00FFFFFF00FF
310
FFFF00FFFFFF00FFFFFF00FFFFFF00FFFFFF00FFFFFF00FFFFFF00FFFFFF00FFFFFF00FFFFFF00FFFFFF00FFFFFF00FFFFFF00FFFFFF00FFFFFF00FFFFFF00FFFFFF00FFFFFF00FFFFFF00FFFFFF00FFFFFF00FFFFFF00FFFFFF00FFFFFF00FFFFFF00FFFFFF00FFFFFF00FFFFFF00FFFFFF00FFFFFF00FFFFFF00FFFFFF00
310
FFFFFF00FFFFFF00FFFFFF00FFFFFF00FFFFFF00FFFFFF00FFFFFF00FFFFFF00FFFFFF00FFFFFF00FFFFFF00FFFFFF00FFFFFF00FFFFFF00FFFFFF00FFFFFF00FFFFFF00FFFFFF00FFFFFF00FFFFFF00FFFFFF00FFFFFF00FFFFFF00FFFFFF00FFFFFF00FFFFFF00FFFFFF00FFFFFF00FFFFFF00FFFFFF00FFFFFF00FFFFFF
310
00FFFFFF00FFFFFF00FFFFFF00FFFFFF00FFFFFF00FFFFFF00FFFFFF00FFFFFF00FFFFFF00FFFFFF00FFFFFF00FFFFFF00FFFFFF00FFFFFF00FFFFFF00FFFFFF00FFFFFF00FFFFFF00FFFFFF00FFFFFF00FFFFFF00FFFFFF00FFFFFF00FFFFFF00FFFFFF00FFFFFF00FFFFFF00FFFFFF00FFFFFF00FFFFFF00FFFFFF00FFFF
310
FF00FFFFFF00FFFFFF00FFFFFF00FFFFFF00FFFFFF00FFFFFF00FFFFFF00FFFFFF00FFFFFF00FFFFFF00FFFFFF00FFFFFF00FFFFFF00FFFFFF00FFFFFF00FFFFFF00FFFFFF00FFFFFF00FFFFFF00FFFFFF00FFFFFF00FFFFFF00FFFFFF00FFFFFF00FFFFFF00FFFFFF00FFFFFF00FFFFFF00FFFFFF00FFFFFF00FFFFFF00FF
310
FFFF00FFFFFF00FFFFFF00FFFFFF00FFFFFF00FFFFFF00FFFFFF00FFFFFF00FFFFFF00FFFFFF00FFFFFF00FFFFFF00FFFFFF00FFFFFF00FFFFFF00FFFFFF00FFFFFF00FFFFFF00FFFFFF00FFFFFF00FFFFFF00FFFFFF00FFFFFF00FFFFFF00FFFFFF00FFFFFF00FFFFFF00FFFFFF00FFFFFF00FFFFFF00FFFFFF00FFFFFF00
310
FFFFFF00FFFFFF00FFFFFF00FFFFFF00FFFFFF00FFFFFF00FFFFFF00FFFFFF00FFFFFF00FFFFFF00FFFFFF00FFFFFF0000000000000000000000000001010101010101010101010101010101010101010101010101010101010101010101010101010101010101010101010101010101010101010101010101010101010101
310
01010101010101010101010101010101010101010101010101010101010101010101010101010101010101010101010101010101010101010101010101010101010101010101010101010101010101010101010101010101010101010101030303030303030000000000000000000000000101010101010101010101010101
310
01010101010101010101010101010101010101010101010101010101010101010101010101010101010101010101010101010101010101010101010101010101010101010101010101010101010101010101010101010101010101010101010101010101010101010101010101010101010101010101010101010101010101
310
01010101010101010101010101010101010101010303030303030300000000000000000000000001010101010101010101010101010101010101010101010101010101010101010101010101010101010101010101010101010101010101010101010101010101010101010101010101010101010101010101010101010101
310
01010101010101010101010101010101010101010101010101010101010101010101010101010101010101010101010101010101010101010101010101010101010101010101010101030303030303030000000000000000000000000101010101010101010101010101010101010101010101010101010101010101010101
310
01010101010101010101010101010101010101010101010101010101010101010101010101010101010101010101010101010101010101010101010101010101010101010101010101010101010101010101010101010101010101010101010101010808080808080808080808080808080101010101010101010101010103
310
03030303030300000000000000000101010101010101010101010101010101010101010101010101010101010101010101010101010101010101010101010101010101010101010101010101010101010101010101010101010101010101010101010101010101010101010101010101010101010101010101010108080808
310
08080808080808080808080801010101010101010101010108080808080808080808080808080801010101010101010101010101010101010303030000000000000000010101010101010101010101010101010101010101010101010101010101010101010101010101010101010101010101010101010101010101010101
310
01010101010101010101010101010101010101010101010101010101010101010101010101010101010101010101010101080808080808080808080808080808080101010101010101010101010808080808080808080808080808080101010101010101010101010101010101030303000000000000000001010101010101
310
08080808080808080808080808080808080808080808080808080808010101010101010101010101010101010101010101010101010101010101010101010101010101010101010101010101010101010101010101010101010101010101010101010101010108080808080808080808080808080808010101010101010101
310
01010108080808080808080808080808080801010101010108080808080101010101010303030000000000000000010101010101010808080808080808080808080808080808080808080808080808080808080808080808080808080808080808080808010101010101010101010101010101010101010101010101010101
310
01010101010101010101010101010101010101010101010101010101080808080808080808080808080808080101010101010101010101010808080808080808080808080808080101010108080808080808010101010101030303000000000000000001010101010101080808080808080808080808080808080808080808
310
08080808080808080808080808080808080808080808080808080101010101010101010101010101010101010101010101010101010101010101010101010101010101010101010101010101010101010101010101080808080808080808010101010101010101010101010101080808080808080808080808080808010101
310
01080808080808080101010101010303030000000000000000010101010101010808080808080808080808080808080808080808080808080808080808080808080808080808080808080808080808000000000000000000000000000000000000000000000000000000000000000000000000000000000000000000000000
310
00000101010101010000080808080808080808080101010108080801010101010101010808080808080808080808080808080101010108080808080801010101010101030303000000000000000001010101010101080808080808080808080808080808080808080808080808080808080808080808080808080808080808
310
08080808080800000000000000000000000000000000000000000000000000000000000000000000000000000000000000000000000000010101010101000008080808080808080808010101010808080808080101010101010101010101010101010101010101010101010808080101010101010101010103030300000000
310
00000000010101010101010808080808080808080808080808080808080808080808080808080808080808080808080808080808080808080808080000000000000000000000000000000000000000000000000000000000000000000000000000000000000000000000000001010101080808080808080808080808080808
310
08080808080808080801010101010101010101010101010101010101010101010108080801010101010101010101030303000000000000000001010101010108080808080808080808080808080808080808080808080808080808080808080808080808080808080808080808080808000000000000000000000000000000
310
00000000000000000000000000000000000000000000000000000000000000000000010101010808080808080808080808080808080808080808080808080101010100000000000000000000000000000000010101010808080808080801010101010103030300000000000000000101010101010808080808080808080808
310
08080808080808080808080808080808080808080808080808080808080808080808080808080000000000000000000000000000000000000000000000000000000000000000000000000000000000000000000000000001010101080808050502020202020202080808080808080808080801010101010000000000000000
310
00000000000000000101010108080808080808010101010101000000000000000000000001010101010108080808080808080808080808080808080808080808080808080808080808080808080808080808080808080808080000000000000808080808080808080808080808080808080808080808080808080808080000
310
00000000000000000000000000010101010808080502020202020202020208080808080808080808010101010100000000000000000000000000000000010101010808080808080801010101010100000000000000000000000101010101010108080808080808080808080808080808080808080808080808080808080808
310
08080808080808080808080808080808080000000808080808080808080808080808080808080808080808080808080808080808080808080808080808080808080808080808080808080202020202020202020101010108080808080801010101010000000000000000000000000000000001010101080808080808010101
310
01010101000000000000000000000001010101010101080808080808080808080808080808080808080808080808080808080808080808080808080808080808080808080808000000080808080808080808080808080808080808080808080808080808080808080808080808080808080808080808080808080808080808
310
08020202020202020101010101010101010101010101010101010101010101010101010101010101010101010808080808080101010101010100000000000000000000000101010101010108080808080808080808080808080808080808080808080808080808080808080808080808080808080808080808080800000008
310
08080808080808080808080808080808080808080808080808080808080808080808080808080808080808080808080808080808080808010101010101010101010101010101010101010101010101010101080808080808080808080808080808080808080808010101010101010000000000000000000000010101010101
310
08080808080808080808080808080808080808080808080808080808080808080808080808080808080808080808080800000000000808080808080808080808080808080808080808080808080808080808080808080808080808080808080808080808080808080808080101010101010101010101010101010101010101
310
01010101010101010808080808080808080808080808080808080808080101010101010100000000000000000000000101010101010808080808080808080808080808080808080808080808080808080808080808080808080808080808080808080808000000000008080808080808080808080808080808080808080808
310
08080808080808080808080808080808080808080808080808080808080808080808080808080000000000000000000101010101010101010101010101010101010101010101010101010101010101010101010101010101010000000000000000000000010101010101080808080808080808080808080808080808080808
310
08080808080808080808080808080808080808080808080808000000000000080808080808080808080808080808080808080808080808080808080808080808080808080808080808080808080808080808080808080808080808000000000000000000010101010101010101010101010101010101010101010101010101
310
01010101010101010101010101010100000000000000000000000101010101010108080808080808080808080808080808080808080808080000000000000000000000000000000000000000000000000000000008080808080808080808080808080808080808080808080808080808080808080808080808080808080808
310
08080808080808080808080808080808080000000000000000000101010101010101010101010101010101010101010101010101010101010101010101010101010101010000000000000000000000010101010101010808080808080808080808080808080808080808080808000000000000000000000000000000000000
310
00000000000000000000080808080808080808080808080808080808080808080808080808080808080808080808080808080808080808080808080808080808080808080000000000000000000000010101010101010101010101010101010101010101010101010101010101010101010101010101010101000000000000
310
00000000000101010101010108080808080808080808080808080808080808080808080808080800000000000000000000000000000000000000000000000000080808080808080808080808080808080808080808080808080808080808080808080808080808080808080808080808080808080808080808000000000000
310
00000000000000000001010101010101010101010101010101010101010101010101010101010101010101010101010000000000000000000000010101010101010808080808080808080808080808080808080808080808080808080808080000000000000000000000000000000000000000000008080808080808080808
310
08080808080808080808080808080808080808080808080808080808080808080808080808080808080808080808080000000000000000000000000000000101010101010101010101010101010101010101010101010101010101010101010101010101000000000000000000000001010101010101080808080808080808
310
08080808080808080808080808080808080808080808080808080808080808080808080808000000000000080808080808080808080808080808080808080808080808080808080808080808080808080808080808080808080808080808080808080800000000000000000000000000000000010101010101010101010101
310
01010101010101010101010101010101010101010101010101010000000000000000000000010101010101080808080808080808080808080808080808080808080808080808080808080808080808080808080808080808080800000000000808080808080808080808080808080808080808080808080808080808080808
310
08080808080808080808080808080808080808000000000000000000000000000000000000000000000000000000000000000000000000000000000000000000000000000000010101010101010101000000000000000000000001010101010108080808080808080808080808080808080808080808080808080808080808
310
08080808080808080808080808080808000000000008080808080808080808080808080808080808080808080808080808080808080808080808080808080808080808080808080800000000000000000000000000000000000000000000000000000000000000000000000000000000000000000000000000000001010101
310
01010101010000000000000000000000010101010101080808080808080808080808080808080808080808080808080808080808080808080808080808080808080808080800000000000808080808080808080808080808080808080808080808080808080808080808080808080808080808080808080808080808080000
310
00000000000000000000000000000000000000000000000000000000000000000000000000000000000000000000000000010101010101010101000000000000000000000001010101010108080808050505050505050505050505050505050505050505050505050505050505050505050505050505050505050505050505
310
05050505050505050505050505050505050505050505050505050505050505050505050505050505050505050505050505050505050505050505050505050505050505050505050000000000000000000000000000000000000000000000000000000000000001010101010101010100000000000000000000000101010101
310
01080808080505050505050505050505050505050505050505050505050505050505050505050505050505050505050505050505050505050505050505050505050505050505050505050505050505050505050505050505050505050505050505050505050505050505050505050505050505050505050505050505000000
310
00000000000000000000000000000000000000000000000000000000010101010101010101000000000000000000000001010101010101050505080808080808080808080505050505050505050505050505080808050505080808050505080808050505080808050505080808050505080808050505080808050505080808
310
05050508080805050508080805050508080805050505050505050505050505050505050505050505050505050505050505050505000000000000000000000000000000000000000000000000000000000001010101010101010100000000000000000000000101010101010105050508080808080808080808080808080808
310
08080805050505050808080505050808080505050808080505050808080505050808080505050808080505050808080505050808080505050808080505050808080505050808080505050505050505050505050505050505050505050505050505050505050505050500000000000000000000000000000000000000000000
310
00000000000000010101010101010101000000000000000000000001010101010101050505080808080808080808080808080808080808080505050505080808050505080808050505080808050505080808050505080808050505080808050505080808050505080808050505080808050505080808050505080808050505
310
05050505050505050505050505050505050505050505050505050505050505000000000000000000000000000000000000000000000000000000000001010101010101010100000000000000000000000101010101010105050508080808080808080808080808080808080808050505050505050505050505050505050505
310
05050505050505050505050505050505050505050505050505050505050505050505050505050505050505050505050505050505050505050505050505050505050505050505050505050505050505050505050500000000000000000000000000000000000000000000000000000000000101010101010101010000000000
310
00000000000001010101010101050505080808080808080505050508080808080808080805050505050505050505050505050505050505050505050505050505050505050505050505050505050505050505050505050505050505050505050505050505050505050505050505050505050505050505050505050505050505
310
05050505050505050505000000000000000000000000000000000000000000000000000000000001010101010101010100000000000000000000000101010101010105050508080808080808050505050808080808080808080505050505050505050505050505050505050505050505050505050505050505050505050505
310
05050505050505050505050505050505050505050505050505050505050505050505050505050505050505050505050505050505050505050505050505050500000000000000000000000000000000000000000000000000000000000101010101010101010000000000000000000000010101010101010505050808080808
310
08080005050508080808080808080805050505050505050505050505050505050505050505050505050505050505050505050505050505050505050505050505050505050505050505050505050505050505050505050505050505050505050505050505050505050505050505050505050505050000000000000000000000
310
00000000000000000000000000000000000001010101010101010100000000000000000000000101010101010105050508080808080808080808080808080808080808080505050505050505050505050505050505050505050505050505050505050505050505050505050505050505050505050505050505050505050505
310
05050505050505050505050505050505050505050505050505050505050505050505050505050505050500000000000000000000000000000000000000000000000000000000000101010101010101010000000000000000000000010101010101010505050808080808080808080808080808080808080808050505050505
310
05050505050505050505050505050505050505050505050505050505050505050505050505050505050505050505050505050505050505050505050505050505050505050505050505050505050505050505050505050505050505050505050000000000000000000000000000000000000000000000000000000000010101
310
01010101010100000000000000000000000101010101010105050508080808080808080808080808080808080808080505050505050505050505050505050505050505050505050505050505050505050505050505050505050505050505050505050505050505050505050505050505050505050505050505050505050505
310
05050505050505050505050505050505050505050500000000000000000000000000000000000000000000000000000000000101010101010101010000000000000000000000010101010101010505050808080808080808080805080808080808080808050505050505050505050505050505050505050505050505050505
310
05050505050505050505050505050505050505050505050505050505050505050505050505050505050505050505050505050505050505050505050505050505050505050505050505050000000000000000000000000000000000000000000000000000000000010101010101010101000000000000000000000001010101
310
01010105050505050500000000000505050808080808080808080505050505050505050505050505050505050505050505050505050505050505050505050505050505050505050505050505050505050505050505050505050505050505050505050505050505050505050505050505050505050505050505050505050505
310
00000000000000000000000000000000000000000000000000000000000101010101010101010000000000000000000000010101010101010505050505050505050505050505080808080808080808050505050505050505050505050505050505050505050505050505050505050505050505050505050505050505050505
310
05050505050505050505050505050505050505050505050505050505050505050505050505050505050505050505050505050505050000000000000000000000000000000000000000000000000000000000010101010101010101000000000000000000000001010101010101050505050505050505050505050508080808
310
08080808080505050508080805050508080805050508080805050508080805050508080805050508080805050508080805050508080805050508080805050508080805050508080805050505050505050505050505050505050505050505050505050505050505050505000000000000000000000000000000000000000000
310
00000000000000000101010101010101010000000000000000000000010101010101010505050808080808050505050505080808080805050505050505050808080505050808080505050808080505050808080505050808080505050808080505050808080505050808080505050808080505050808080505050808080505
310
05050505050505050505050505050505050505050505050505050505050505050000000000000000000000000000000000000000000000000000000000010101010101010101000000000000000000000001010101010101050505080808080808080808080508080808080805050505050505080808050505080808050505
310
08080805050508080805050508080805050508080805050508080805050508080805050508080805050508080805050508080805050505050505050505050505050505050505050505050505050505050505050505000000000000000000000000000000000000000000000000000000000001010101010101010100000000
310
00000000000000010101010101010505050808080808080808080805080808080808050505050505050808080505050808080505050808080505050808080505050808080505050808080505050808080505050808080505050808080505050808080505050808080505050505050505050505050505050505050505050505
310
05050505050505050505050000000000000000000000000000000000000000000000000000000000010101010101010101000000000000000000000001010101010101050505080808080808080808080508080808080805050505050505080808050505080808050505080808050505080808050505080808050505080808
310
05050508080805050508080805050508080805050508080805050508080805050505050505050505050505050505050505050505050505050505050505050505000000000000000000000000000000000000000000000000000000000001010101010101010100000000000000000000000101010101010105050508080808
310
08080808080505080808080808050505050505050808080505050808080505050808080505050808080505050808080505050808080505050808080505050808080505050808080505050808080505050808080505050505050505050505050505050505050505050505050505050505050505050500000000000000000000
310
00000000000000000000000000000000000000010101010101010101000000000000000000000001010101010101050505080808080808080808080808080808080805050505050505080808050508080808050508080808050508080808050508080808050508080808080508080808080508080808080508080808080508
310
08080808050808080808050505050505050505050505050505050505050505050505050505050505050505000000000000000000000000000000000000000000000000000000000001010101010101010100000000000000000000000101010101010105050508080808080808080808080808080808080505050505050508
310
08080505080808080505080808080505080808080505080808080505080808080805080808080805080808080805080808080805080808080805080808080805050505050505050505050505050505050505050505050505050505050505050500000000000000000000000000000000000000000000000000000000000101
310
01010101010101000000000000000000000001010101010101050505080808080808080808080808080808080805050505050505080808050508080808050508080808050508080808050508080808050508080808080508080808080508080808080508080808080508080808080508080808080505050505050505050505
310
05050505050505050505050505050505050505050505000000000000000000000000000000000000000000000000000000000001010101010101010100000000000000000000000101010101010105050508080808080808080808080808080808080505050505050508080805050808080805050808080805050808080805
310
05080808080505080808080805080808080805080808080805080808080805080808080805080808080805050505050505050505050505050505050505050505050505050505050505050500000000000000000000000000000000000000000000000000000000000101010101010101010000000000000000000000010101
310
01010101050505080808080808080808080808080808080505050505050505080808050508080808050508080808050508080808050508080808050508080808080508080808080508080808080508080808080508080808080508080808080505050505050505050505050505050505050505050505050505050505050505
310
05000000000000000000000000000000000000000000000000000000000001010101010101010100000000000000000000000101010101010105050508080808080808080808080808080808050505050505050508080805050808080805050808080805050808080805050808080805050808080808050808080808050808
310
08080805080808080805080808080805080808080805050505050505050505050505050505050505050505050505050505050505050500000000000000000000000000000000000000000000000000000000000101010101010101010000000000000000000000010101010101010505050808080808080808080808080808
310
08080505050505050505080808050508080808050508080808050508080808050508080808050508080808080508080808050508080808080508080808080508080808080508080808080505050505050505050505050505050505050505050505050505050505050505050000000000000000000000000000000000000000
310
00000000000000000001010101010101010100000000000000000000000101010101010105050505050505050505050505050505050505050808080505050505050505050505050505050505050505050505050505050505050505050505050505050505050505050505050505050505050505050505050505050505050505
310
05050505050505050505050505050505050505050505050505050505050505050500000000000000000000000000000000000000000000000000000000000101010101010101010000000000000000000000010101010101010505050808080808080808080505050505050505080808050505050505050505050505050505
310
05050505050505050505050505050505050505050505050505050505050505050505050505050505050505050505050505050505050505050505050505050505050505050505050505050505050505050505050505050000000000000000000000000000000000000000000000000000000000010101010101010101000000
310
00000000000000000101010101010105050508080808080808080808080808080805050808080505050505050505050505050505050505050505050505050505050505050505050505050505050505050505050505050505050505050505050505050505050505050505050500000505050500000505050500000505050500
310
00050505050005050505050500000000000000000000000000000000000000000000000000000000000101010101010101010000000000000000000000010101010101010505050808080808080808080808080808080505050505050505050505050505050505050505050505050505050505050505050505050505050505
310
05050505050505050505050505050505050505050505050505050505050505050505050505050505050505050505050505050505050505050505050505050505050000000000000000000000000000000000000000000000000000000000010101010101010101000000000000000000000001010101010101050505080808
310
08080808080808080808080805050505050505050505050505050505050505050505050505050505050505050505050505050505050505050505050505050505050505050505050505050505050505050505050505050505050505050505050505050505050505050505050505050505050505050505000000000000000000
310
00000000000000000000000000000000000000000101010101010101010000000000000000000000010101010101010505050808080808080808080808080808080505080808050505050505050505050505050505050505050505050505050505050505050505050505050505050505050505050505050505050505050505
310
05050505050505050505050505050505050505050505050505050505050505050505050505050505050505050000000000000000000000000000000000000000000000000000000000010101010101010101000000000000000000000001010101010101050505050505000000000000000000000005050508080805050505
310
05050505050505050505050505050505050505050505050505050505050505050505050505050505050505050505050505050505050505050505050505050505050505050505050505050505050505050505050505050505050505050505050505000000000000000000000000000000000000000000000000000000000001
310
01010101010101010000000000000000000000010101010101010505050505050505050505050505050505050505080808050505050505050505050505050505050505050505050505050505050505050505050505050505050505050505050505050505050505050505050505050505050505050505050505050505050505
310
05050505050505050505050505050505050505050505050000000000000000000000000000000000000000000000000000000000010101010101010101000000000000000000000001010101010101050505080808080808080808080808080808050505050505050505050505050505050505050505050505050505050505
310
05050505050505050505050505050505050505050505050505050505050505050505050505050505050505050505050505050505050505050505050505050505050505050505050505050505000000000000000000000000000000000000000000000000000000000001010101010101010100000000000000000000000101
310
01010101010505050808080808080808080808080808080505050505050505050505050505050505050505050505050505050505050505050505050505050505050505050505050505050505050505050505050505050505050505050505050505050505050505050505050505050505050505050505050505050505050505
310
05050000000000000000000000000000000000000000000000000000000000010101010101010101000000000000000000000001010101010101050505080808080808080808080808080808080505050505050505080808050505080808050505080808050505080808050505080808050505080808050505080808050505
310
08080805050508080805050508080805050508080805050505050505050505050505050505050505050505050505050505050505050505000000000000000000000000000000000000000000000000000000000001010101010101010100000000000000000000000101010101010105050508080808080808080808080808
310
08080805050505050505050808080505050808080505050808080505050808080505050808080505050808080505050808080505050808080505050808080505050808080505050808080505050505050505050505050505050505050505050505050505050505050505050500000000000000000000000000000000000000
310
00000000000000000000010101010101010101000000000000000000000001010101010101050505080808080808080808080808080808080505050505050505080808050505080808050505080808050505080808050505080808050505080808050505080808050505080808050505080808050505080808050505080808
310
05050505050505050505050505050505050505050505050505050505050505050505000000000000000000000000000000000000000000000000000000000001010101010101010100000000000000000000000101010101010105050508080808080808080808080808080808080505050505050508080505050508080505
310
05050808080505050808080505050808080505050808080505050808080505050808080505050808080505050808080505050808080505050505050505050505050505050505050505050505050505050505050505050500000000000000000000000000000000000000000000000000000000000101010101010101010000
310
00000000000000000001010101010101050505080808080808080808080808080808080805050505050505080805050505080805050505080808050505080808050505080808050505080808050505080808050505080808050505080808050505080808050505080808050505050505050505050505050505050505050505
310
05050505050505050505050505000000000000000000000000000000000000000000000000000000000001010101010101010100000000000000000000000101010101010105050508080808080808080808080808080808080505050505050508080505050508080505050508080805050508080805050508080805050508
310
08080505050808080505050808080505050808080505050808080505050808080505050505050505050505050505050505050505050505050505050505050505050500000000000000000000000000000000000000000000000000000000000101010101010101010000000000000000000000010101010101010505050808
310
08080808080808080808080808050505050505050505080805050505080808050505080805050505080808050505080808050505080808050505080808050505080808050505080808050505080808050505080808050505050505050505050505050505050505050505050505050505050505050505050000000000000000
310
00000000000000000000000000000000000000000001010101010101010100000000000000000000000101010101010105050508080808080808080808080808080808080808080505050508080505050508080805050508080505050508080805050508080805050508080805050508080805050508080805050508080805
310
05050808080505050808080505050505050505050505050505050505050505050505050505050505050505050500000000000000000000000000000000000000000000000000000000000101010101010101010000000000000000000000010101010101010505050808080808080808080808080808080808080808050505
310
05080805050505080808050505080805050505080808050505080808050505080808050505080808050505080808050505080808050505080808050505080808050505050505050505050505050505050505050505050505050505050505050505050000000000000000000000000000000000000000000000000000000000
310
01010101010101010100000000000000000000000101010101010105050508080808080808080808080808080808080808080505050508080505050508080805050508080805050508080805050508080805050508080805050508080805050508080805050508080805050508080805050508080805050505050505050505
310
05050505050505050505050505050505050505050505050500000000000000000000000000000000000000000000000000000000000101010101010101010000000000000000000000010101010101010505050808080808080808080808080808080808080808050505050808050505050808080505050808080505050808
310
08050505080808050505080808050505080808050505080808050505080808050505080808050505080808050505050505050505050505050505050505050505050505050505050505050505050000000000000000000000000000000000000000000000000000000000010101010101010101000000000000000000000001
310
01010101010105050508080808080808080808080808080808080808080505050508080505050508080805050508080805050508080805050508080805050508080805050508080805050508080805050508080805050508080805050508080805050505050505050505050505050505050505050505050505050505050505
310
05050500000000000000000000000000000000000000000000000000000000000101010101010101010000000000000000000000010101010101010505050808080808080808080808080808080808080808050505050808080505080808080505080808080505080808080505050808080505050808080505050808080505
310
05080808050505080808050505080808050505080808050505050505050505050505050505050505050505050505050505050505050505050000000000000000000000000000000000000000000000000000000000010101010101010101000000000000000000000001010101010101050505050505050505050505050505
310
05050505050808080505050508080805050808080805050808080805050808080805050508080805050508080805050508080805050508080805050508080805050508080805050508080805050505050505050505050505050505050505050505050505050505050505050505000000000000000000000000000000000000
310
00000000000000000000000101010101010101010000000000000000000000010101010101010505050505050505050505050505050505050505080808050505050808080505080808080505080808080505080808080505050808080505050808080505050808080505050808080505050808080505050808080505050808
310
08050505050505050505050505050505050505050505050505050505050505050505050000000000000000000000000000000000000000000000000000000000010101010101010101000000000000000000000001010101010101050505050505000000000000000000000005050505050505050505050505050505050505
310
05050505050505050505050505050505050505050505050505050505050505050505050505050505050505050505050505050505050505050505050505050505050505050505050505050505050505050505050505050505000000000000000000000000000000000000000000000000000000000001010101010101010100
310
00000000000000000000010101010101010505050505050000000000000000000000050505050505050505050505050505050505050505050505050505050505050505050505050505050505050505050505050505050505050505050505050505050505050505050505050505050505050505050505050505050505050505
310
05050505050505050505050505050000000000000000000000000000000000000000000000000000000000010101010101010101000000000000000000000001010101010101050505050505000000000000000000000005050505050505050505050505050505050505050505050505050505050505050505050505050505
310
05050505050505050505050505050505050505050505050505050505050505050505050505050505050505050505050505050505050505050505050505050505050505000000000000000000000000000000000000000000000000000000000001010101010101010100000000000000000000000101010101010105050508
310
08080808080808080808080808050505080808050505050505050505050505050505050505050505050505050505050505050505050505050505050505050505050505050505050505050505050505050505050505050505050505050505050505050505050505050505050505050505050505050505050500000000000000
310
00000000000000000000000000000000000000000000010101010101010101000000000000000000000001010101010101050505080808080808080808080808080805050508080805050505050505050505050505050505050505050505050505050505050505050505050505050505050505050505050505050505050505
310
05050505050505050505050505050505050505050505050505050505050505050505050505050505050505050505000000000000000000000000000000000000000000000000000000000001010101010101010100000000000000000000000101010101010105050508080808080808080808080808080505050808080505
310
05050505050505050505050505050505050505050505050505050505050505050505050505050505050505050505050505050505050505050505050505050505050505050505050505050505050505050505050505050505050505050505050505050500000000000000000000000000000000000000000000000000000000
310
00010101010101010101000000000000000000000001010101010101050505050505000000000000000000000005050508080805050505080808080808080808080808080808080505080808050505080808050505080808050505080808050505080808050808080808080808080808080808080808080805050505050505
310
05050505050505050505050505050505050505050505050505000000000000000000000000000000000000000000000000000000000001010101010101010100000000000000000000000101010101010105050505050500000000000000000000000505050808080505050508080808080808080808080808080808080808
310
08080808080808080808080808080805080808080808080808080808080808080808080808080808080808080808050505050505050505050505050505050505050505050505050505050505050500000000000000000000000000000000000000000000000000000000000101010101010101010000000000000000000000
310
01010101010101050505050505000000000000000000000005050508080805050505080808080808080808080808080808080808080808080808080808080808080808080508080808080808080808080808080808080808080808080808080808080805050505050505050505050505050505050505050505050505050505
310
05050505000000000000000000000000000000000000000000000000000000000001010101010101010100000000000000000000000101010101010105050505050500000000000000000000000505050808080505050508080808080808080808080808080808080808080808080808080808080808080808080808080808
310
08080808080808080808080808080808080808080808080808050505050505050505050505050505050505050505050505050505050505050500000000000000000000000000000000000000000000000000000000000101010101010101010000000000000000000000010101010101010505050505050000000000000000
310
00000005050508080805050505080808080808080808080808080808080808080808080808080808080808080808080808080808080808080808080808080808080808080808080808080808080805050505050505050505050505050505050505050505050505050505050505050000000000000000000000000000000000
310
00000000000000000000000001010101010101010100000000000000000000000101010101010105050505050505050505050505050505050505050808080505050508080808080808080808080808080808080808080808080808080808080808080808080808080808080808080808080808080808080808080808080808
310
08080808050505050505050505050505050505050505050505050505050505050505050808080808080808080808080808080808080808050505050808080808080808080801010101010000000000000000000000010101010101010505050808080808080808080808080808080808080805050505050808050505050808
310
05050505080805050505080805050505080805050505080805050808080808080808080808080808080808080808080808080808080808080805050505050505050505050505050505050505050505050505050505050505080808080808080808080808080808080808080805050505080808080808080808080501010101
310
00000000000000000000000101010101010105050508080808080808080808080808080808080808080505050508080505050508080505050508080505050508080505050508080505050508080505050508080505050508080805050505080805050505080805050505080805050505050505050505050505050505050505
310
05050505050505050505050505050808080808080808080808080808080808080808050505050808080808080808080805010101010000000000000000000000010101010101010505050808080808080808080808080808080808080808050505050808050505050808050505050808050505050808050505050808050505
310
05080805050505080805050505080808050505050808050505050808050505050808050505050505050505050505050505050505050505050505050505050505050505080808080808080808080808080808050505050505050505080808080808080808050501010101000000000000000000000001010101010101050505
310
08080808080808080808080808080808080808080505050508080805050808080805050808080805050808080805050808080805050808080805050808080805050808080805050808080805050508080805050508080808050505050505050505050505050505050505050505050505050505050505050508080808080808
310
08080808080808080808080808080808080808080808080808080505010101010000000000000000000000010101010101010505050808080808080808080808080808050505050505050505050808080505080808080505080808080505080808080505080808080505080808080505080808080505080808080505080808
310
08050505080808050505080808080505050505050505050505050505050505050505050505050505050505050505080808080808080808080808080808080808080808080808080808080808080805050501010101000000000000000000000001010101010101050505080808080808080808080808080808080505050505
310
05050508080805050808080805050808080805050808080805050808080805050808080805050808080805050808080805050808080805050808080805050508080808050505050505050505050505050505050505050505050505050505050505050508080808080808080808080808080808080808080808080808080808
310
08080808050505010101010000000303030303030303010101010101010505050808080808080808080808080808080805050505050505050808080505080808080505080808080404080808080404080808080404080808080404080808080404080808080404080808080404080808080505050808080805050505050505
310
05050505050505050505050505050505050505050505050505080808080808080808080808080808080808080808080808080808080808080805050501010101000000030303030303030301010101010101050505080808080808080808080808080808080505050505050505080808050508080808050508080808040408
310
08080804040808080804040808080804040808080804040808080804040808080804040808080805050508080808050505050505050505050505050505050505050505050505050505050505050505050505050505050505050505050505050505050505050505050505050505050505050101010100000003030303030303
310
03010101010101010505050505050505050505050505050505050505050505050505050505050505050505050505050505050404040404040404040404040404040404040404040404040404040404040404040404040404040404040505050505050505050505050505050505050505050505050505050505050505050505
310
05050505050505050505050505050505050505050505050505050505050505050505050505050101010101000000030303030303030301010101010101050505050505050505050505050505050505050505050505050505050505050505050505050505050505040404040404040404040404040404040404040404040404
310
04040404040404040404040404040404040405050505050505050505050505050505050505050505050505050505050505050505050505050505050505050505050505050505050505050505050505050505050505050505050505010101010100000003030303030303030101010101010105050505050505050505050505
310
05050505050505050505050505050505050505050505050505050505050404040404040404040404040404040404040404040404040404040404040404040404040404040404040505050505050505050505050505050505050505050505050505050505050505050505050505050501080808080808010108080808080801
310
01080801010101010101010108080808080801010101000000030303030303030301010101010101010101050505050505050505050505050505050505050505050505050505050505050505050505050505050505050505050505050505050505050505050505050505050505050505050505050505050505050505050505
310
05050505050505050505050505050505050505050505050505050505050505050505050101010808080808080101080808080808010808080101010808080101080808080808080101010100000003030303030303030101010101010101010105050505050505050505050505050505050505050505050505050505050505
310
05050505050505050505050505050505050505050505050505050505050505050505050505050505050505050505050505050505050505050505050505050505050505050505050505050505050505050505050505050505010101080808080808010108080808080801080808010101080808010108080808080808010101
310
01000000030303030303030301010101010101010101050505050505050505050505050505050505050505050505050505050505050505050505050505050505050505050505050505050505050505050505050505050505050505050505050505050505050505050505050505050505050505050505050505050505050505
310
05050505050505050505050505050101010101080808010101010808080801010808080101010808080101080808080808010101010100000003030303030303030303030301010101010101010101010101010101010101010101010101010101010101010101010101010101010101010101010101010101010101010101
310
01010101010101010101010101010101010101010101010101010101010101010101010101010101010101010101010101010101010101010101010101010101010101010101010101010101010101010101010101080808010101010101010101010101010101000000000000000303030303030303030303030101010101
310
01010101010101010101010101010101010101010101010101010101010101010101010101010101010101010101010101010101010101010101010101010101010101010101010101010101010101010101010101010101010101010101010101010101010101010101010101010101010101010101010101010101010101
310
01010101010101010101010101010101010101010101010101010101010000000000000003030303030303030303030301010101010101010101010101010101010101010101010101010101010101010101010101010101010101010101010101010101010101010101010101010101010101010101010101010101010101
310
01010101010101010101010101010101010101010101010101010101010101010101010101010101010101010101010101010101010101010101010101010101010101010101010101010101010101010101000000000000000000000000000000000000000000000000000000000000000000000000000000000000000000
310
00000000000000000000000000000000000000000000000000000000000000000000000000000000000000000000000000000000000000000000000000000000000000000000000000000000000000000000000000000000000000000000000000000000000000000000000000000000000000000000000000000000000000
310
000000000000000000000000000706
  0
ENDSEC
  0
EOF
