  0
SECTION
  2
HEADER
  9
$ACADVER
  1
AC1014
  9
$ACADMAINTVER
 70
     0
  9
$DWGCODEPAGE
  3
ANSI_1252
  9
$INSBASE
 10
0.0
 20
0.0
 30
0.0
  9
$EXTMIN
 10
1.897083
 20
-10.742583
 30
0.0
  9
$EXTMAX
 10
149.558
 20
0.52825
 30
0.0
  9
$LIMMIN
 10
0.0
 20
0.0
  9
$LIMMAX
 10
12.0
 20
9.0
  9
$ORTHOMODE
 70
     0
  9
$REGENMODE
 70
     1
  9
$FILLMODE
 70
     1
  9
$QTEXTMODE
 70
     0
  9
$MIRRTEXT
 70
     1
  9
$DRAGMODE
 70
     2
  9
$LTSCALE
 40
1.0
  9
$OSMODE
 70
     0
  9
$ATTMODE
 70
     1
  9
$TEXTSIZE
 40
0.2
  9
$TRACEWID
 40
0.05
  9
$TEXTSTYLE
  7
STANDARD
  9
$CLAYER
  8
0
  9
$CELTYPE
  6
CONTINUOUS
  9
$CECOLOR
 62
   256
  9
$CELTSCALE
 40
1.0
  9
$DELOBJ
 70
     1
  9
$DISPSILH
 70
     0
  9
$DIMSCALE
 40
1.0
  9
$DIMASZ
 40
0.18
  9
$DIMEXO
 40
0.0625
  9
$DIMDLI
 40
0.38
  9
$DIMRND
 40
0.0
  9
$DIMDLE
 40
0.0
  9
$DIMEXE
 40
0.18
  9
$DIMTP
 40
0.0
  9
$DIMTM
 40
0.0
  9
$DIMTXT
 40
0.18
  9
$DIMCEN
 40
0.09
  9
$DIMTSZ
 40
0.0
  9
$DIMTOL
 70
     0
  9
$DIMLIM
 70
     0
  9
$DIMTIH
 70
     1
  9
$DIMTOH
 70
     1
  9
$DIMSE1
 70
     0
  9
$DIMSE2
 70
     0
  9
$DIMTAD
 70
     0
  9
$DIMZIN
 70
     0
  9
$DIMBLK
  1

  9
$DIMASO
 70
     1
  9
$DIMSHO
 70
     1
  9
$DIMPOST
  1

  9
$DIMAPOST
  1

  9
$DIMALT
 70
     0
  9
$DIMALTD
 70
     2
  9
$DIMALTF
 40
25.4
  9
$DIMLFAC
 40
1.0
  9
$DIMTOFL
 70
     0
  9
$DIMTVP
 40
0.0
  9
$DIMTIX
 70
     0
  9
$DIMSOXD
 70
     0
  9
$DIMSAH
 70
     0
  9
$DIMBLK1
  1

  9
$DIMBLK2
  1

  9
$DIMSTYLE
  2
STANDARD
  9
$DIMCLRD
 70
     0
  9
$DIMCLRE
 70
     0
  9
$DIMCLRT
 70
     0
  9
$DIMTFAC
 40
1.0
  9
$DIMGAP
 40
0.09
  9
$DIMJUST
 70
     0
  9
$DIMSD1
 70
     0
  9
$DIMSD2
 70
     0
  9
$DIMTOLJ
 70
     1
  9
$DIMTZIN
 70
     0
  9
$DIMALTZ
 70
     0
  9
$DIMALTTZ
 70
     0
  9
$DIMFIT
 70
     3
  9
$DIMUPT
 70
     0
  9
$DIMUNIT
 70
     2
  9
$DIMDEC
 70
     4
  9
$DIMTDEC
 70
     4
  9
$DIMALTU
 70
     2
  9
$DIMALTTD
 70
     2
  9
$DIMTXSTY
  7
STANDARD
  9
$DIMAUNIT
 70
     0
  9
$LUNITS
 70
     2
  9
$LUPREC
 70
     4
  9
$SKETCHINC
 40
0.1
  9
$FILLETRAD
 40
0.0
  9
$AUNITS
 70
     0
  9
$AUPREC
 70
     0
  9
$MENU
  1
acad
  9
$ELEVATION
 40
0.0
  9
$PELEVATION
 40
0.0
  9
$THICKNESS
 40
0.0
  9
$LIMCHECK
 70
     0
  9
$BLIPMODE
 70
     1
  9
$CHAMFERA
 40
0.0
  9
$CHAMFERB
 40
0.0
  9
$CHAMFERC
 40
0.0
  9
$CHAMFERD
 40
0.0
  9
$SKPOLY
 70
     0
  9
$TDCREATE
 40
2451800.355393519
  9
$TDUPDATE
 40
2451800.355393519
  9
$TDINDWG
 40
0.0000000000
  9
$TDUSRTIMER
 40
0.0000000000
  9
$USRTIMER
 70
     1
  9
$ANGBASE
 50
0.0
  9
$ANGDIR
 70
     0
  9
$PDMODE
 70
     0
  9
$PDSIZE
 40
0.0
  9
$PLINEWID
 40
0.0
  9
$COORDS
 70
     0
  9
$SPLFRAME
 70
     0
  9
$SPLINETYPE
 70
     6
  9
$SPLINESEGS
 70
    10
  9
$ATTDIA
 70
     0
  9
$ATTREQ
 70
     1
  9
$HANDLING
 70
     1
  9
$HANDSEED
  5
614
  9
$SURFTAB1
 70
     6
  9
$SURFTAB2
 70
     6
  9
$SURFTYPE
 70
     6
  9
$SURFU
 70
     6
  9
$SURFV
 70
     6
  9
$UCSNAME
  2

  9
$UCSORG
 10
0.0
 20
0.0
 30
0.0
  9
$UCSXDIR
 10
1.0
 20
0.0
 30
0.0
  9
$UCSYDIR
 10
0.0
 20
1.0
 30
0.0
  9
$PUCSNAME
  2

  9
$PUCSORG
 10
0.0
 20
0.0
 30
0.0
  9
$PUCSXDIR
 10
1.0
 20
0.0
 30
0.0
  9
$PUCSYDIR
 10
0.0
 20
1.0
 30
0.0
  9
$USERI1
 70
     0
  9
$USERI2
 70
     0
  9
$USERI3
 70
     0
  9
$USERI4
 70
     0
  9
$USERI5
 70
     0
  9
$USERR1
 40
0.0
  9
$USERR2
 40
0.0
  9
$USERR3
 40
0.0
  9
$USERR4
 40
0.0
  9
$USERR5
 40
0.0
  9
$WORLDVIEW
 70
     1
  9
$SHADEDGE
 70
     3
  9
$SHADEDIF
 70
    70
  9
$TILEMODE
 70
     1
  9
$MAXACTVP
 70
    16
  9
$PINSBASE
 10
0.0
 20
0.0
 30
0.0
  9
$PLIMCHECK
 70
     0
  9
$PEXTMIN
 10
-1.000000E+20
 20
-1.000000E+20
 30
-1.000000E+20
  9
$PEXTMAX
 10
-1.000000E+20
 20
-1.000000E+20
 30
-1.000000E+20
  9
$PLIMMIN
 10
0.0
 20
0.0
  9
$PLIMMAX
 10
12.0
 20
9.0
  9
$UNITMODE
 70
     0
  9
$VISRETAIN
 70
     0
  9
$PLINEGEN
 70
     1
  9
$PSLTSCALE
 70
     0
  9
$TREEDEPTH
 70
  3020
  9
$PICKSTYLE
 70
     1
  9
$CMLSTYLE
  2
STANDARD
  9
$CMLJUST
 70
     0
  9
$CMLSCALE
 40
1.0
  9
$PROXYGRAPHICS
 70
     0
  9
$MEASUREMENT
 70
     0
  0
ENDSEC
  0
SECTION
  2
CLASSES
  0
CLASS
  1
LWPOLYLINE
  2
AcDbPolyline
  3
"AutoCAD"
 90
        0
280
     0
281
     1
  0
CLASS
  1
IMAGE
  2
AcDbRasterImage
  3
ISM
 90
      127
280
     0
281
     1
  0
CLASS
  1
OLE2FRAME
  2
AcDbOle2Frame
  3
""
 90
        0
280
     0
281
     1
  0
CLASS
  1
HATCH
  2
AcDbHatch
  3
"ACAD_SEDONA"
 90
        0
280
     0
281
     1
  0
CLASS
  1
DICTIONARYVAR
  2
AcDbDictionaryVar
  3
"AutoCAD"
 90
        0
280
     0
281
     0
  0
CLASS
  1
RASTERVARIABLES
  2
AcDbRasterVariables
  3
ISM
 90
        0
280
     0
281
     0
  0
CLASS
  1
IMAGEDEF
  2
AcDbRasterImageDef
  3
ISM
 90
        0
280
     0
281
     0
  0
CLASS
  1
IMAGEDEF_REACTOR
  2
AcDbRasterImageDefReactor
  3
ISM
 90
        1
280
     0
281
     0
  0
CLASS
  1
IDBUFFER
  2
AcDbIdBuffer
  3
"Acad"
 90
        0
280
     0
281
     0
  0
CLASS
  1
SPATIAL_FILTER
  2
AcDbSpatialFilter
  3
"Acad"
 90
        0
280
     0
281
     0
  0
CLASS
  1
XRECORD
  2
AcDbXrecord
  3
"<Built In>"
 90
        0
280
     0
281
     0
  0
CLASS
  1
SORTENTSTABLE
  2
AcDbSortentsTable
  3
"AutoCAD"
 90
        0
280
     0
281
     0
  0
CLASS
  1
LAYER_INDEX
  2
AcDbLayerIndex
  3
"Acad"
 90
        0
280
     0
281
     0
  0
CLASS
  1
SPATIAL_INDEX
  2
AcDbSpatialIndex
  3
"Acad"
 90
        0
280
     0
281
     0
  0
CLASS
  1
OBJECT_PTR
  2
CAseDLPNTableRecord
  3
"ASE-LPNTableRecord"
 90
        1
280
     0
281
     0
  0
ENDSEC
  0
SECTION
  2
TABLES
  0
TABLE
  2
VPORT
  5
7
100
AcDbSymbolTable
 70
     1
  0
VPORT
  5
613
100
AcDbSymbolTableRecord
100
AcDbViewportTableRecord
  2
*ACTIVE
 70
     0
 10
0.0
 20
0.0
 11
1.0
 21
1.0
 12
0.0
 22
0.0
 13
0.0
 23
0.0
 14
0.0
 24
0.0
 15
0.0
 25
0.0
 16
0.0
 26
0.0
 36
1.0
 17
7.847882
 27
-0.465875
 37
0.0
 40
2.06775
 41
1.543189
 42
50.0
 43
0.0
 44
0.0
 50
0.0
 51
0.0
 71
     0
 72
   100
 73
     1
 74
     0
 75
     0
 76
     0
 77
     0
 78
     0
  0
ENDTAB
  0
TABLE
  2
LTYPE
  5
4
100
AcDbSymbolTable
 70
     9
  0
LTYPE
  5
11
100
AcDbSymbolTableRecord
100
AcDbLinetypeTableRecord
  2
BYBLOCK
 70
     0
  3

 72
    65
 73
     0
 40
0.0
  0
LTYPE
  5
12
100
AcDbSymbolTableRecord
100
AcDbLinetypeTableRecord
  2
BYLAYER
 70
     0
  3

 72
    65
 73
     0
 40
0.0
  0
LTYPE
  5
13
100
AcDbSymbolTableRecord
100
AcDbLinetypeTableRecord
  2
CONTINUOUS
 70
     0
  3
Solid line
 72
    65
 73
     0
 40
0.0
  0
LTYPE
  5
22
100
AcDbSymbolTableRecord
100
AcDbLinetypeTableRecord
  2
DOT
 70
    64
  3
. . . . . . . . . . . . . . . . . . . . . . . . . . . . . . . . .
 72
    65
 73
     2
 40
0.25
 49
0.0
 74
     0
 49
-0.25
 74
     0
  0
LTYPE
  5
23
100
AcDbSymbolTableRecord
100
AcDbLinetypeTableRecord
  2
HIDDEN
 70
    64
  3
__ __ __ __ __ __ __ __ __ __ __ __ __ __ __ __ __ __ __ __ __ 
 72
    65
 73
     2
 40
0.375
 49
0.25
 74
     0
 49
-0.125
 74
     0
  0
LTYPE
  5
24
100
AcDbSymbolTableRecord
100
AcDbLinetypeTableRecord
  2
DASHED
 70
    64
  3
__ __ __ __ __ __ __ __ __ __ __ __ __ __ __ __ __ __ __ __ __
 72
    65
 73
     2
 40
0.75
 49
0.5
 74
     0
 49
-0.25
 74
     0
  0
LTYPE
  5
25
100
AcDbSymbolTableRecord
100
AcDbLinetypeTableRecord
  2
DASHDOT
 70
    64
  3
__ . __ . __ . __ . __ . __ . __ . __ . __ . __ . __ . __ . _
 72
    65
 73
     4
 40
1.0
 49
0.5
 74
     0
 49
-0.25
 74
     0
 49
0.0
 74
     0
 49
-0.25
 74
     0
  0
LTYPE
  5
26
100
AcDbSymbolTableRecord
100
AcDbLinetypeTableRecord
  2
DIVIDE
 70
    64
  3
____ . . ____ . . ____ . . ____ . . ____ . . ____ . . ____ . .
 72
    65
 73
     6
 40
1.25
 49
0.5
 74
     0
 49
-0.25
 74
     0
 49
0.0
 74
     0
 49
-0.25
 74
     0
 49
0.0
 74
     0
 49
-0.25
 74
     0
  0
LTYPE
  5
27
100
AcDbSymbolTableRecord
100
AcDbLinetypeTableRecord
  2
CENTER
 70
    64
  3
____ _ ____ _ ____ _ ____ _ ____ _ ____ _ ____ _ ____ _ ____ _
 72
    65
 73
     4
 40
2.0
 49
1.25
 74
     0
 49
-0.25
 74
     0
 49
0.25
 74
     0
 49
-0.25
 74
     0
  0
ENDTAB
  0
TABLE
  2
LAYER
  5
2
100
AcDbSymbolTable
 70
     4
  0
LAYER
  5
14
102
{ACAD_XDICTIONARY
360
5F205F5F5F5F205F
102
}
100
AcDbSymbolTableRecord
100
AcDbLayerTableRecord
  2
0
 70
     0
 62
     7
  6
CONTINUOUS
  0
LAYER
  5
2A
102
{ACAD_XDICTIONARY
360
5F205F5F5F5F205F
102
}
100
AcDbSymbolTableRecord
100
AcDbLayerTableRecord
  2
1
 70
    64
 62
     7
  6
CONTINUOUS
  0
LAYER
  5
55A
102
{ACAD_XDICTIONARY
360
5F205F5F5F5F205F
102
}
100
AcDbSymbolTableRecord
100
AcDbLayerTableRecord
  2
5
 70
    64
 62
     7
  6
CONTINUOUS
  0
LAYER
  5
5F5
102
{ACAD_XDICTIONARY
360
5F205F5F5F5F205F
102
}
100
AcDbSymbolTableRecord
100
AcDbLayerTableRecord
  2
16
 70
    64
 62
     7
  6
CONTINUOUS
  0
ENDTAB
  0
TABLE
  2
STYLE
  5
3
100
AcDbSymbolTable
 70
     3
  0
STYLE
  5
17
100
AcDbSymbolTableRecord
100
AcDbTextStyleTableRecord
  2
STANDARD
 70
     0
 40
0.0
 41
1.0
 50
0.0
 71
     0
 42
0.0
  3
txt
  4

  0
STYLE
  5
50
100
AcDbSymbolTableRecord
100
AcDbTextStyleTableRecord
  2
ROMANT
 70
     0
 40
0.2
 41
1.0
 50
0.0
 71
     0
 42
0.2
  3
ROMANT
  4

  0
STYLE
  5
53
100
AcDbSymbolTableRecord
100
AcDbTextStyleTableRecord
  2
TXT
 70
     0
 40
0.2
 41
1.0
 50
0.0
 71
     0
 42
0.2
  3
TXT
  4

  0
ENDTAB
  0
TABLE
  2
VIEW
  5
5
100
AcDbSymbolTable
 70
    12
  0
VIEW
  5
606
102
{ACAD_XDICTIONARY
360
F43F
102
}
100
AcDbSymbolTableRecord
100
AcDbViewTableRecord
  2
CWHOLE
 70
     0
 40
2.612083
 10
0.0
 20
0.0
 41
3.370667
 11
0.0
 21
0.0
 31
1.0
 12
7.888167
 22
-0.241875
 32
0.0
 42
50.0
 43
0.083333
 44
0.0
 50
0.0
 71
     0
  0
VIEW
  5
607
102
{ACAD_XDICTIONARY
360
F43F
102
}
100
AcDbSymbolTableRecord
100
AcDbViewTableRecord
  2
AA
 70
     0
 40
0.933583
 10
0.0
 20
0.0
 41
1.204667
 11
0.0
 21
0.0
 31
1.0
 12
7.862667
 22
-0.672042
 32
0.0
 42
50.0
 43
0.083333
 44
0.0
 50
0.0
 71
     0
  0
VIEW
  5
608
102
{ACAD_XDICTIONARY
360
F43F
102
}
100
AcDbSymbolTableRecord
100
AcDbViewTableRecord
  2
EOQ
 70
     0
 40
0.571833
 10
0.0
 20
0.0
 41
0.738
 11
0.0
 21
0.0
 31
1.0
 12
9.026
 22
-0.7985
 32
0.0
 42
50.0
 43
0.083333
 44
0.0
 50
0.0
 71
     0
  0
VIEW
  5
609
102
{ACAD_XDICTIONARY
360
F43F
102
}
100
AcDbSymbolTableRecord
100
AcDbViewTableRecord
  2
CD
 70
     0
 40
0.565083
 10
0.0
 20
0.0
 41
0.729167
 11
0.0
 21
0.0
 31
1.0
 12
9.126667
 22
0.057042
 32
0.0
 42
50.0
 43
0.083333
 44
0.0
 50
0.0
 71
     0
  0
VIEW
  5
60A
102
{ACAD_XDICTIONARY
360
F43F
102
}
100
AcDbSymbolTableRecord
100
AcDbViewTableRecord
  2
BORS
 70
     0
 40
0.6475
 10
0.0
 20
0.0
 41
0.8355
 11
0.0
 21
0.0
 31
1.0
 12
9.133083
 22
-0.533417
 32
0.0
 42
50.0
 43
0.083333
 44
0.0
 50
0.0
 71
     0
  0
VIEW
  5
60B
102
{ACAD_XDICTIONARY
360
F43F
102
}
100
AcDbSymbolTableRecord
100
AcDbViewTableRecord
  2
BLT
 70
     0
 40
0.577167
 10
0.0
 20
0.0
 41
0.744833
 11
0.0
 21
0.0
 31
1.0
 12
8.267417
 22
0.082833
 32
0.0
 42
50.0
 43
0.083333
 44
0.0
 50
0.0
 71
     0
  0
VIEW
  5
60C
102
{ACAD_XDICTIONARY
360
F43F
102
}
100
AcDbSymbolTableRecord
100
AcDbViewTableRecord
  2
ELEV
 70
     0
 40
1.0165
 10
0.0
 20
0.0
 41
1.311667
 11
0.0
 21
0.0
 31
1.0
 12
7.173583
 22
-0.691167
 32
0.0
 42
50.0
 43
0.083333
 44
0.0
 50
0.0
 71
     0
  0
VIEW
  5
60D
102
{ACAD_XDICTIONARY
360
F43F
102
}
100
AcDbSymbolTableRecord
100
AcDbViewTableRecord
  2
SPV
 70
     0
 40
0.679
 10
0.0
 20
0.0
 41
0.87625
 11
0.0
 21
0.0
 31
1.0
 12
6.978625
 22
0.279
 32
0.0
 42
50.0
 43
0.083333
 44
0.0
 50
0.0
 71
     0
  0
VIEW
  5
60E
102
{ACAD_XDICTIONARY
360
F43F
102
}
100
AcDbSymbolTableRecord
100
AcDbViewTableRecord
  2
OEC
 70
     0
 40
0.372417
 10
0.0
 20
0.0
 41
0.480583
 11
0.0
 21
0.0
 31
1.0
 12
8.478542
 22
-0.970292
 32
0.0
 42
50.0
 43
0.083333
 44
0.0
 50
0.0
 71
     0
  0
VIEW
  5
60F
102
{ACAD_XDICTIONARY
360
F43F
102
}
100
AcDbSymbolTableRecord
100
AcDbViewTableRecord
  2
PRINT
 70
     0
 40
5.552083
 10
0.0
 20
0.0
 41
7.1645
 11
0.0
 21
0.0
 31
1.0
 12
5.23975
 22
0.086292
 32
0.0
 42
50.0
 43
0.083333
 44
0.0
 50
0.0
 71
     0
  0
VIEW
  5
610
102
{ACAD_XDICTIONARY
360
F43F
102
}
100
AcDbSymbolTableRecord
100
AcDbViewTableRecord
  2
PROJTI
 70
     0
 40
0.452167
 10
0.0
 20
0.0
 41
0.5835
 11
0.0
 21
0.0
 31
1.0
 12
9.199333
 22
0.542
 32
0.0
 42
50.0
 43
0.083333
 44
0.0
 50
0.0
 71
     0
  0
VIEW
  5
611
102
{ACAD_XDICTIONARY
360
F43F
102
}
100
AcDbSymbolTableRecord
100
AcDbViewTableRecord
  2
TITLE
 70
     0
 40
0.493
 10
0.0
 20
0.0
 41
0.63625
 11
0.0
 21
0.0
 31
1.0
 12
9.160208
 22
-1.152667
 32
0.0
 42
50.0
 43
0.083333
 44
0.0
 50
0.0
 71
     0
  0
ENDTAB
  0
TABLE
  2
UCS
  5
6
100
AcDbSymbolTable
 70
     1
  0
UCS
  5
612
100
AcDbSymbolTableRecord
100
AcDbUCSTableRecord
  2
FTPLAN
 70
     0
 10
-2147483648.0
 20
-2147483648.0
 30
-2147483648.0
 11
0.0
 21
1.0
 31
0.0
 12
1.0
 22
0.0
 32
0.0
  0
ENDTAB
  0
TABLE
  2
APPID
  5
8
100
AcDbSymbolTable
 70
     1
  0
APPID
  5
16
100
AcDbSymbolTableRecord
100
AcDbRegAppTableRecord
  2
ACAD
 70
     0
  0
ENDTAB
  0
TABLE
  2
DIMSTYLE
  5
9
100
AcDbSymbolTable
 70
     1
  0
DIMSTYLE
105
18
100
AcDbSymbolTableRecord
100
AcDbDimStyleTableRecord
  2
STANDARD
 70
     0
  3

  4

  5

  6

  7

 40
1.0
 41
0.18
 42
0.0625
 43
0.38
 44
0.18
 45
0.0
 46
0.0
 47
0.0
 48
0.0
140
0.18
141
0.09
142
0.0
143
25.4
144
1.0
145
0.0
146
1.0
147
0.09
 71
     0
 72
     0
 73
     1
 74
     1
 75
     0
 76
     0
 77
     0
 78
     0
170
     0
171
     2
172
     0
173
     0
174
     0
175
     0
176
     0
177
     0
178
     0
270
     2
271
     4
272
     4
273
     2
274
     2
340
17
275
     0
280
     0
281
     0
282
     0
283
     1
284
     0
285
     0
286
     0
287
     0
288
     0
  0
ENDTAB
  0
TABLE
  2
BLOCK_RECORD
  5
1
100
AcDbSymbolTable
 70
     5
  0
BLOCK_RECORD
  5
A
100
AcDbSymbolTableRecord
100
AcDbBlockTableRecord
  2
*MODEL_SPACE
  0
BLOCK_RECORD
  5
B
100
AcDbSymbolTableRecord
100
AcDbBlockTableRecord
  2
*PAPER_SPACE
  0
BLOCK_RECORD
  5
B1
102
{ACAD_XDICTIONARY
360
8575012400000000
102
}
100
AcDbSymbolTableRecord
100
AcDbBlockTableRecord
  2
REBAR
  0
BLOCK_RECORD
  5
1C1
102
{ACAD_XDICTIONARY
360
8575012400000000
102
}
100
AcDbSymbolTableRecord
100
AcDbBlockTableRecord
  2
ARROW1
  0
BLOCK_RECORD
  5
334
102
{ACAD_XDICTIONARY
360
8575012400000000
102
}
100
AcDbSymbolTableRecord
100
AcDbBlockTableRecord
  2
BARBND
  0
BLOCK_RECORD
  5
399
102
{ACAD_XDICTIONARY
360
8575012400000000
102
}
100
AcDbSymbolTableRecord
100
AcDbBlockTableRecord
  2
CIRCLE
  0
BLOCK_RECORD
  5
5F6
102
{ACAD_XDICTIONARY
360
8575012400000000
102
}
100
AcDbSymbolTableRecord
100
AcDbBlockTableRecord
  2
NOTE
  0
ENDTAB
  0
ENDSEC
  0
SECTION
  2
BLOCKS
  0
BLOCK
  5
D
100
AcDbEntity
  8
0
100
AcDbBlockBegin
  2
*MODEL_SPACE
 70
     0
 10
0.0
 20
0.0
 30
0.0
  3
*MODEL_SPACE
  1

  0
ENDBLK
  5
E
100
AcDbEntity
  8
0
100
AcDbBlockEnd
  0
BLOCK
  5
F
100
AcDbEntity
 67
     1
  8
0
100
AcDbBlockBegin
  2
*PAPER_SPACE
 70
     0
 10
0.0
 20
0.0
 30
0.0
  3
*PAPER_SPACE
  1

  0
ENDBLK
  5
10
100
AcDbEntity
 67
     1
  8
0
100
AcDbBlockEnd
  0
BLOCK
  5
B2
100
AcDbEntity
  8
1
  6
CONTINUOUS
 62
   200
100
AcDbBlockBegin
  2
REBAR
 70
     0
 10
0.0
 20
0.0
 30
0.0
  3
REBAR
  1

  0
CIRCLE
  5
B3
100
AcDbEntity
  8
1
  6
CONTINUOUS
 62
   200
100
AcDbCircle
 10
0.00125
 20
0.000333
 30
0.0
 40
0.0033
210
0.0
220
0.0
230
1.0
  0
LINE
  5
B4
100
AcDbEntity
  8
1
  6
CONTINUOUS
 62
   200
100
AcDbLine
 10
-0.002083
 20
0.000167
 30
0.0
 11
0.004333
 21
0.001
 31
0.0
  0
LINE
  5
B5
100
AcDbEntity
  8
1
  6
CONTINUOUS
 62
   200
100
AcDbLine
 10
0.004333
 20
0.001
 30
0.0
 11
-0.001333
 21
0.00225
 31
0.0
  0
LINE
  5
B6
100
AcDbEntity
  8
1
  6
CONTINUOUS
 62
   200
100
AcDbLine
 10
-0.001333
 20
0.00225
 30
0.0
 11
0.004333
 21
-0.000417
 31
0.0
  0
LINE
  5
B7
100
AcDbEntity
  8
1
  6
CONTINUOUS
 62
   200
100
AcDbLine
 10
0.004333
 20
-0.000417
 30
0.0
 11
-0.001583
 21
-0.001333
 31
0.0
  0
LINE
  5
B8
100
AcDbEntity
  8
1
  6
CONTINUOUS
 62
   200
100
AcDbLine
 10
-0.001583
 20
-0.001333
 30
0.0
 11
0.00325
 21
-0.00225
 31
0.0
  0
LINE
  5
B9
100
AcDbEntity
  8
1
  6
CONTINUOUS
 62
   200
100
AcDbLine
 10
0.00325
 20
-0.00225
 30
0.0
 11
0.00325
 21
0.002917
 31
0.0
  0
LINE
  5
BA
100
AcDbEntity
  8
1
  6
CONTINUOUS
 62
   200
100
AcDbLine
 10
0.00325
 20
0.002917
 30
0.0
 11
0.001167
 21
-0.002917
 31
0.0
  0
LINE
  5
BB
100
AcDbEntity
  8
1
  6
CONTINUOUS
 62
   200
100
AcDbLine
 10
0.001167
 20
-0.002917
 30
0.0
 11
0.00175
 21
0.0035
 31
0.0
  0
LINE
  5
BC
100
AcDbEntity
  8
1
  6
CONTINUOUS
 62
   200
100
AcDbLine
 10
0.00175
 20
0.0035
 30
0.0
 11
-0.000833
 21
-0.002167
 31
0.0
  0
LINE
  5
BD
100
AcDbEntity
  8
1
  6
CONTINUOUS
 62
   200
100
AcDbLine
 10
-0.000833
 20
-0.002167
 30
0.0
 11
0.000083
 21
0.003417
 31
0.0
  0
LINE
  5
BE
100
AcDbEntity
  8
1
  6
CONTINUOUS
 62
   200
100
AcDbLine
 10
0.000083
 20
0.003417
 30
0.0
 11
0.002083
 21
-0.002833
 31
0.0
  0
LINE
  5
BF
100
AcDbEntity
  8
1
  6
CONTINUOUS
 62
   200
100
AcDbLine
 10
0.002083
 20
-0.002833
 30
0.0
 11
-0.001833
 21
0.001333
 31
0.0
  0
LINE
  5
C0
100
AcDbEntity
  8
1
  6
CONTINUOUS
 62
   200
100
AcDbLine
 10
-0.001833
 20
0.001333
 30
0.0
 11
0.004167
 21
0.001833
 31
0.0
  0
LINE
  5
C1
100
AcDbEntity
  8
1
  6
CONTINUOUS
 62
   200
100
AcDbLine
 10
0.004167
 20
0.001833
 30
0.0
 11
0.000083
 21
-0.002667
 31
0.0
  0
LINE
  5
C2
100
AcDbEntity
  8
1
  6
CONTINUOUS
 62
   200
100
AcDbLine
 10
0.000083
 20
-0.002667
 30
0.0
 11
0.002583
 21
0.003333
 31
0.0
  0
LINE
  5
C3
100
AcDbEntity
  8
1
  6
CONTINUOUS
 62
   200
100
AcDbLine
 10
0.002583
 20
0.003333
 30
0.0
 11
-0.001333
 21
0.00225
 31
0.0
  0
LINE
  5
C4
100
AcDbEntity
  8
1
  6
CONTINUOUS
 62
   200
100
AcDbLine
 10
-0.001333
 20
0.00225
 30
0.0
 11
-0.001583
 21
-0.001333
 31
0.0
  0
LINE
  5
C5
100
AcDbEntity
  8
1
  6
CONTINUOUS
 62
   200
100
AcDbLine
 10
-0.001583
 20
-0.001333
 30
0.0
 11
0.001
 21
-0.002917
 31
0.0
  0
LINE
  5
C6
100
AcDbEntity
  8
1
  6
CONTINUOUS
 62
   200
100
AcDbLine
 10
0.001
 20
-0.002917
 30
0.0
 11
0.00325
 21
-0.00225
 31
0.0
  0
LINE
  5
C7
100
AcDbEntity
  8
1
  6
CONTINUOUS
 62
   200
100
AcDbLine
 10
0.00325
 20
-0.00225
 30
0.0
 11
0.004333
 21
-0.000417
 31
0.0
  0
LINE
  5
C8
100
AcDbEntity
  8
1
  6
CONTINUOUS
 62
   200
100
AcDbLine
 10
0.004333
 20
-0.000417
 30
0.0
 11
0.004167
 21
0.001833
 31
0.0
  0
LINE
  5
C9
100
AcDbEntity
  8
1
  6
CONTINUOUS
 62
   200
100
AcDbLine
 10
0.004167
 20
0.001833
 30
0.0
 11
0.002583
 21
0.003333
 31
0.0
  0
LINE
  5
CA
100
AcDbEntity
  8
1
  6
CONTINUOUS
 62
   200
100
AcDbLine
 10
0.002583
 20
0.003333
 30
0.0
 11
0.001
 21
0.000583
 31
0.0
  0
LINE
  5
CB
100
AcDbEntity
  8
1
  6
CONTINUOUS
 62
   200
100
AcDbLine
 10
0.001
 20
0.000583
 30
0.0
 11
0.003833
 21
-0.001667
 31
0.0
  0
LINE
  5
CC
100
AcDbEntity
  8
1
  6
CONTINUOUS
 62
   200
100
AcDbLine
 10
0.003833
 20
-0.001667
 30
0.0
 11
-0.000833
 21
-0.002167
 31
0.0
  0
LINE
  5
CD
100
AcDbEntity
  8
1
  6
CONTINUOUS
 62
   200
100
AcDbLine
 10
-0.000833
 20
-0.002167
 30
0.0
 11
0.001
 21
0.000583
 31
0.0
  0
LINE
  5
CE
100
AcDbEntity
  8
1
  6
CONTINUOUS
 62
   200
100
AcDbLine
 10
0.001
 20
0.000583
 30
0.0
 11
-0.001667
 21
0.00175
 31
0.0
  0
LINE
  5
CF
100
AcDbEntity
  8
1
  6
CONTINUOUS
 62
   200
100
AcDbLine
 10
-0.001667
 20
0.00175
 30
0.0
 11
0.000833
 21
0.0035
 31
0.0
  0
LINE
  5
D0
100
AcDbEntity
  8
1
  6
CONTINUOUS
 62
   200
100
AcDbLine
 10
0.000833
 20
0.0035
 30
0.0
 11
0.001
 21
0.00075
 31
0.0
  0
LINE
  5
D1
100
AcDbEntity
  8
1
  6
CONTINUOUS
 62
   200
100
AcDbLine
 10
0.001
 20
0.00075
 30
0.0
 11
0.003083
 21
-0.002167
 31
0.0
  0
LINE
  5
D2
100
AcDbEntity
  8
1
  6
CONTINUOUS
 62
   200
100
AcDbLine
 10
0.003083
 20
-0.002167
 30
0.0
 11
-0.001833
 21
0.00075
 31
0.0
  0
LINE
  5
D3
100
AcDbEntity
  8
1
  6
CONTINUOUS
 62
   200
100
AcDbLine
 10
-0.001833
 20
0.00075
 30
0.0
 11
0.001583
 21
0.001667
 31
0.0
  0
LINE
  5
D4
100
AcDbEntity
  8
1
  6
CONTINUOUS
 62
   200
100
AcDbLine
 10
0.001583
 20
0.001667
 30
0.0
 11
0.00325
 21
0.002917
 31
0.0
  0
LINE
  5
D5
100
AcDbEntity
  8
1
  6
CONTINUOUS
 62
   200
100
AcDbLine
 10
-0.001
 20
0.00225
 30
0.0
 11
-0.00125
 21
-0.001333
 31
0.0
  0
LINE
  5
D6
100
AcDbEntity
  8
1
  6
CONTINUOUS
 62
   200
100
AcDbLine
 10
-0.00075
 20
0.00225
 30
0.0
 11
-0.001
 21
-0.001333
 31
0.0
  0
LINE
  5
D7
100
AcDbEntity
  8
1
  6
CONTINUOUS
 62
   200
100
AcDbLine
 10
-0.000333
 20
0.00225
 30
0.0
 11
-0.000583
 21
-0.001417
 31
0.0
  0
LINE
  5
D8
100
AcDbEntity
  8
1
  6
CONTINUOUS
 62
   200
100
AcDbLine
 10
-0.000083
 20
0.00225
 30
0.0
 11
-0.000333
 21
-0.001417
 31
0.0
  0
LINE
  5
D9
100
AcDbEntity
  8
1
  6
CONTINUOUS
 62
   200
100
AcDbLine
 10
0.000167
 20
0.00225
 30
0.0
 11
0.0
 21
-0.001417
 31
0.0
  0
LINE
  5
DA
100
AcDbEntity
  8
1
  6
CONTINUOUS
 62
   200
100
AcDbLine
 10
0.000583
 20
0.002167
 30
0.0
 11
0.000417
 21
-0.001417
 31
0.0
  0
LINE
  5
DB
100
AcDbEntity
  8
1
  6
CONTINUOUS
 62
   200
100
AcDbLine
 10
0.001
 20
0.002167
 30
0.0
 11
0.000833
 21
-0.001417
 31
0.0
  0
LINE
  5
DC
100
AcDbEntity
  8
1
  6
CONTINUOUS
 62
   200
100
AcDbLine
 10
0.001333
 20
0.002167
 30
0.0
 11
0.001
 21
-0.001417
 31
0.0
  0
LINE
  5
DD
100
AcDbEntity
  8
1
  6
CONTINUOUS
 62
   200
100
AcDbLine
 10
0.001583
 20
0.002167
 30
0.0
 11
0.001333
 21
-0.001417
 31
0.0
  0
LINE
  5
DE
100
AcDbEntity
  8
1
  6
CONTINUOUS
 62
   200
100
AcDbLine
 10
0.001833
 20
0.002083
 30
0.0
 11
0.001583
 21
-0.001583
 31
0.0
  0
LINE
  5
DF
100
AcDbEntity
  8
1
  6
CONTINUOUS
 62
   200
100
AcDbLine
 10
0.002417
 20
0.002083
 30
0.0
 11
0.002167
 21
-0.001583
 31
0.0
  0
LINE
  5
E0
100
AcDbEntity
  8
1
  6
CONTINUOUS
 62
   200
100
AcDbLine
 10
0.0025
 20
0.002083
 30
0.0
 11
0.00225
 21
-0.001583
 31
0.0
  0
LINE
  5
E1
100
AcDbEntity
  8
1
  6
CONTINUOUS
 62
   200
100
AcDbLine
 10
0.002667
 20
0.002083
 30
0.0
 11
0.0025
 21
-0.001583
 31
0.0
  0
LINE
  5
E2
100
AcDbEntity
  8
1
  6
CONTINUOUS
 62
   200
100
AcDbLine
 10
0.002833
 20
0.002083
 30
0.0
 11
0.002583
 21
-0.001583
 31
0.0
  0
LINE
  5
E3
100
AcDbEntity
  8
1
  6
CONTINUOUS
 62
   200
100
AcDbLine
 10
0.003333
 20
0.002
 30
0.0
 11
0.003083
 21
-0.001667
 31
0.0
  0
LINE
  5
E4
100
AcDbEntity
  8
1
  6
CONTINUOUS
 62
   200
100
AcDbLine
 10
0.003083
 20
0.002
 30
0.0
 11
0.002833
 21
-0.001667
 31
0.0
  0
LINE
  5
E5
100
AcDbEntity
  8
1
  6
CONTINUOUS
 62
   200
100
AcDbLine
 10
0.00375
 20
0.002
 30
0.0
 11
0.0035
 21
-0.001667
 31
0.0
  0
LINE
  5
E6
100
AcDbEntity
  8
1
  6
CONTINUOUS
 62
   200
100
AcDbLine
 10
0.004083
 20
0.002
 30
0.0
 11
0.003833
 21
-0.001667
 31
0.0
  0
LINE
  5
E7
100
AcDbEntity
  8
1
  6
CONTINUOUS
 62
   200
100
AcDbLine
 10
-0.001583
 20
-0.001167
 30
0.0
 11
0.00325
 21
-0.002083
 31
0.0
  0
LINE
  5
E8
100
AcDbEntity
  8
1
  6
CONTINUOUS
 62
   200
100
AcDbLine
 10
-0.001417
 20
-0.001
 30
0.0
 11
0.003333
 21
-0.001833
 31
0.0
  0
LINE
  5
E9
100
AcDbEntity
  8
1
  6
CONTINUOUS
 62
   200
100
AcDbLine
 10
-0.001417
 20
-0.00075
 30
0.0
 11
0.003333
 21
-0.001667
 31
0.0
  0
LINE
  5
EA
100
AcDbEntity
  8
1
  6
CONTINUOUS
 62
   200
100
AcDbLine
 10
-0.001417
 20
-0.0005
 30
0.0
 11
0.003417
 21
-0.001417
 31
0.0
  0
LINE
  5
EB
100
AcDbEntity
  8
1
  6
CONTINUOUS
 62
   200
100
AcDbLine
 10
-0.001333
 20
0.0
 30
0.0
 11
0.0035
 21
-0.000917
 31
0.0
  0
LINE
  5
EC
100
AcDbEntity
  8
1
  6
CONTINUOUS
 62
   200
100
AcDbLine
 10
-0.00125
 20
0.000333
 30
0.0
 11
0.0035
 21
-0.000583
 31
0.0
  0
LINE
  5
ED
100
AcDbEntity
  8
1
  6
CONTINUOUS
 62
   200
100
AcDbLine
 10
-0.00125
 20
0.0005
 30
0.0
 11
0.0035
 21
-0.000417
 31
0.0
  0
LINE
  5
EE
100
AcDbEntity
  8
1
  6
CONTINUOUS
 62
   200
100
AcDbLine
 10
-0.001167
 20
0.000833
 30
0.0
 11
0.003667
 21
-0.000083
 31
0.0
  0
LINE
  5
EF
100
AcDbEntity
  8
1
  6
CONTINUOUS
 62
   200
100
AcDbLine
 10
-0.001167
 20
0.001
 30
0.0
 11
0.003667
 21
0.000167
 31
0.0
  0
LINE
  5
F0
100
AcDbEntity
  8
1
  6
CONTINUOUS
 62
   200
100
AcDbLine
 10
-0.001
 20
0.00125
 30
0.0
 11
0.00375
 21
0.000333
 31
0.0
  0
LINE
  5
F1
100
AcDbEntity
  8
1
  6
CONTINUOUS
 62
   200
100
AcDbLine
 10
-0.001
 20
0.001583
 30
0.0
 11
0.003833
 21
0.000583
 31
0.0
  0
LINE
  5
F2
100
AcDbEntity
  8
1
  6
CONTINUOUS
 62
   200
100
AcDbLine
 10
-0.001
 20
0.00175
 30
0.0
 11
0.003833
 21
0.000833
 31
0.0
  0
LINE
  5
F3
100
AcDbEntity
  8
1
  6
CONTINUOUS
 62
   200
100
AcDbLine
 10
-0.000917
 20
0.002083
 30
0.0
 11
0.003917
 21
0.001167
 31
0.0
  0
LINE
  5
F4
100
AcDbEntity
  8
1
  6
CONTINUOUS
 62
   200
100
AcDbLine
 10
-0.000917
 20
0.00225
 30
0.0
 11
0.003917
 21
0.001417
 31
0.0
  0
LINE
  5
F5
100
AcDbEntity
  8
1
  6
CONTINUOUS
 62
   200
100
AcDbLine
 10
-0.000833
 20
0.002667
 30
0.0
 11
0.003917
 21
0.001833
 31
0.0
  0
LINE
  5
F6
100
AcDbEntity
  8
1
  6
CONTINUOUS
 62
   200
100
AcDbLine
 10
0.002167
 20
0.002083
 30
0.0
 11
0.001833
 21
-0.001583
 31
0.0
  0
LINE
  5
F7
100
AcDbEntity
  8
1
  6
CONTINUOUS
 62
   200
100
AcDbLine
 10
0.0005
 20
0.00225
 30
0.0
 11
0.000167
 21
-0.001417
 31
0.0
  0
LINE
  5
F8
100
AcDbEntity
  8
1
  6
CONTINUOUS
 62
   200
100
AcDbLine
 10
-0.0005
 20
0.00225
 30
0.0
 11
-0.00075
 21
-0.001417
 31
0.0
  0
LINE
  5
F9
100
AcDbEntity
  8
1
  6
CONTINUOUS
 62
   200
100
AcDbLine
 10
0.000833
 20
0.002167
 30
0.0
 11
0.000583
 21
-0.001417
 31
0.0
  0
LINE
  5
FA
100
AcDbEntity
  8
1
  6
CONTINUOUS
 62
   200
100
AcDbLine
 10
0.0035
 20
0.002
 30
0.0
 11
0.00325
 21
-0.001667
 31
0.0
  0
ENDBLK
  5
FB
100
AcDbEntity
  8
1
  6
CONTINUOUS
 62
   200
100
AcDbBlockEnd
  0
BLOCK
  5
1C2
100
AcDbEntity
  8
1
  6
CONTINUOUS
 62
     2
100
AcDbBlockBegin
  2
ARROW1
 70
     0
 10
0.0
 20
0.0
 30
0.0
  3
ARROW1
  1

  0
LINE
  5
1C3
100
AcDbEntity
  8
1
  6
CONTINUOUS
 62
     2
100
AcDbLine
 10
-0.049417
 20
0.0
 30
0.0
 11
0.00075
 21
0.0
 31
0.0
  0
LINE
  5
1C4
100
AcDbEntity
  8
1
  6
CONTINUOUS
 62
     2
100
AcDbLine
 10
-0.049417
 20
0.005167
 30
0.0
 11
0.00075
 21
0.0
 31
0.0
  0
LINE
  5
1C5
100
AcDbEntity
  8
1
  6
CONTINUOUS
 62
     2
100
AcDbLine
 10
0.00075
 20
0.0
 30
0.0
 11
-0.049417
 21
-0.0055
 31
0.0
  0
LINE
  5
1C6
100
AcDbEntity
  8
1
  6
CONTINUOUS
 62
     2
100
AcDbLine
 10
-0.049417
 20
-0.0055
 30
0.0
 11
-0.046583
 21
0.0
 31
0.0
  0
LINE
  5
1C7
100
AcDbEntity
  8
1
  6
CONTINUOUS
 62
     2
100
AcDbLine
 10
-0.046583
 20
0.0
 30
0.0
 11
-0.049417
 21
0.005167
 31
0.0
  0
LINE
  5
1C8
100
AcDbEntity
  8
1
  6
CONTINUOUS
 62
     2
100
AcDbLine
 10
-0.048167
 20
0.00475
 30
0.0
 11
-0.011083
 21
0.000417
 31
0.0
  0
LINE
  5
1C9
100
AcDbEntity
  8
1
  6
CONTINUOUS
 62
     2
100
AcDbLine
 10
-0.048167
 20
0.00475
 30
0.0
 11
-0.011083
 21
0.000417
 31
0.0
  0
LINE
  5
1CA
100
AcDbEntity
  8
1
  6
CONTINUOUS
 62
     2
100
AcDbLine
 10
-0.048167
 20
0.004333
 30
0.0
 11
-0.011083
 21
0.000417
 31
0.0
  0
LINE
  5
1CB
100
AcDbEntity
  8
1
  6
CONTINUOUS
 62
     2
100
AcDbLine
 10
-0.048167
 20
0.003917
 30
0.0
 11
-0.011083
 21
0.0
 31
0.0
  0
LINE
  5
1CC
100
AcDbEntity
  8
1
  6
CONTINUOUS
 62
     2
100
AcDbLine
 10
-0.048167
 20
0.003917
 30
0.0
 11
-0.011083
 21
-0.00075
 31
0.0
  0
LINE
  5
1CD
100
AcDbEntity
  8
1
  6
CONTINUOUS
 62
     2
100
AcDbLine
 10
-0.048167
 20
-0.005167
 30
0.0
 11
-0.013417
 21
-0.001167
 31
0.0
  0
LINE
  5
1CE
100
AcDbEntity
  8
1
  6
CONTINUOUS
 62
     2
100
AcDbLine
 10
-0.048167
 20
-0.004333
 30
0.0
 11
-0.013417
 21
-0.00075
 31
0.0
  0
LINE
  5
1CF
100
AcDbEntity
  8
1
  6
CONTINUOUS
 62
     2
100
AcDbLine
 10
-0.048167
 20
-0.003917
 30
0.0
 11
-0.013417
 21
0.0
 31
0.0
  0
LINE
  5
1D0
100
AcDbEntity
  8
1
  6
CONTINUOUS
 62
     2
100
AcDbLine
 10
-0.048583
 20
-0.003167
 30
0.0
 11
-0.013833
 21
0.000417
 31
0.0
  0
LINE
  5
1D1
100
AcDbEntity
  8
1
  6
CONTINUOUS
 62
     2
100
AcDbLine
 10
-0.045833
 20
0.000417
 30
0.0
 11
-0.023667
 21
0.00075
 31
0.0
  0
LINE
  5
1D2
100
AcDbEntity
  8
1
  6
CONTINUOUS
 62
     2
100
AcDbLine
 10
-0.023667
 20
0.00075
 30
0.0
 11
-0.023667
 21
0.000417
 31
0.0
  0
LINE
  5
1D3
100
AcDbEntity
  8
1
  6
CONTINUOUS
 62
     2
100
AcDbLine
 10
-0.023667
 20
0.000417
 30
0.0
 11
-0.028083
 21
0.000417
 31
0.0
  0
LINE
  5
1D4
100
AcDbEntity
  8
1
  6
CONTINUOUS
 62
     2
100
AcDbLine
 10
-0.028083
 20
0.000417
 30
0.0
 11
-0.045833
 21
0.00075
 31
0.0
  0
LINE
  5
1D5
100
AcDbEntity
  8
1
  6
CONTINUOUS
 62
     2
100
AcDbLine
 10
-0.045833
 20
0.00075
 30
0.0
 11
-0.031583
 21
0.001167
 31
0.0
  0
LINE
  5
1D6
100
AcDbEntity
  8
1
  6
CONTINUOUS
 62
     2
100
AcDbLine
 10
-0.031583
 20
0.001167
 30
0.0
 11
-0.046583
 21
0.001583
 31
0.0
  0
LINE
  5
1D7
100
AcDbEntity
  8
1
  6
CONTINUOUS
 62
     2
100
AcDbLine
 10
-0.046583
 20
0.001583
 30
0.0
 11
-0.035917
 21
0.002
 31
0.0
  0
LINE
  5
1D8
100
AcDbEntity
  8
1
  6
CONTINUOUS
 62
     2
100
AcDbLine
 10
-0.035917
 20
0.002
 30
0.0
 11
-0.046583
 21
0.002333
 31
0.0
  0
LINE
  5
1D9
100
AcDbEntity
  8
1
  6
CONTINUOUS
 62
     2
100
AcDbLine
 10
-0.046583
 20
0.002333
 30
0.0
 11
-0.03
 21
0.001167
 31
0.0
  0
LINE
  5
1DA
100
AcDbEntity
  8
1
  6
CONTINUOUS
 62
     2
100
AcDbLine
 10
-0.03
 20
0.001167
 30
0.0
 11
-0.007917
 21
0.000417
 31
0.0
  0
LINE
  5
1DB
100
AcDbEntity
  8
1
  6
CONTINUOUS
 62
     2
100
AcDbLine
 10
-0.007917
 20
0.000417
 30
0.0
 11
-0.01225
 21
-0.00075
 31
0.0
  0
LINE
  5
1DC
100
AcDbEntity
  8
1
  6
CONTINUOUS
 62
     2
100
AcDbLine
 10
-0.01225
 20
-0.00075
 30
0.0
 11
-0.006333
 21
-0.00075
 31
0.0
  0
LINE
  5
1DD
100
AcDbEntity
  8
1
  6
CONTINUOUS
 62
     2
100
AcDbLine
 10
-0.006333
 20
-0.00075
 30
0.0
 11
-0.045833
 21
-0.00075
 31
0.0
  0
LINE
  5
1DE
100
AcDbEntity
  8
1
  6
CONTINUOUS
 62
     2
100
AcDbLine
 10
-0.045833
 20
-0.00075
 30
0.0
 11
-0.034333
 21
-0.001583
 31
0.0
  0
LINE
  5
1DF
100
AcDbEntity
  8
1
  6
CONTINUOUS
 62
     2
100
AcDbLine
 10
-0.034333
 20
-0.001583
 30
0.0
 11
-0.046583
 21
-0.001583
 31
0.0
  0
LINE
  5
1E0
100
AcDbEntity
  8
1
  6
CONTINUOUS
 62
     2
100
AcDbLine
 10
-0.046583
 20
-0.001583
 30
0.0
 11
-0.021333
 21
0.000417
 31
0.0
  0
LINE
  5
1E1
100
AcDbEntity
  8
1
  6
CONTINUOUS
 62
     2
100
AcDbLine
 10
-0.021333
 20
0.000417
 30
0.0
 11
-0.046583
 21
-0.00275
 31
0.0
  0
LINE
  5
1E2
100
AcDbEntity
  8
1
  6
CONTINUOUS
 62
     2
100
AcDbLine
 10
-0.046583
 20
-0.00275
 30
0.0
 11
-0.045833
 21
0.000417
 31
0.0
  0
LINE
  5
1E3
100
AcDbEntity
  8
1
  6
CONTINUOUS
 62
     2
100
AcDbLine
 10
-0.045833
 20
0.000417
 30
0.0
 11
-0.047833
 21
0.003917
 31
0.0
  0
LINE
  5
1E4
100
AcDbEntity
  8
1
  6
CONTINUOUS
 62
     2
100
AcDbLine
 10
-0.047833
 20
0.003917
 30
0.0
 11
-0.046583
 21
0.00275
 31
0.0
  0
LINE
  5
1E5
100
AcDbEntity
  8
1
  6
CONTINUOUS
 62
     2
100
AcDbLine
 10
-0.046583
 20
0.00275
 30
0.0
 11
-0.045833
 21
0.001167
 31
0.0
  0
LINE
  5
1E6
100
AcDbEntity
  8
1
  6
CONTINUOUS
 62
     2
100
AcDbLine
 10
-0.045833
 20
0.001167
 30
0.0
 11
-0.044667
 21
0.001583
 31
0.0
  0
LINE
  5
1E7
100
AcDbEntity
  8
1
  6
CONTINUOUS
 62
     2
100
AcDbLine
 10
-0.044667
 20
0.001583
 30
0.0
 11
-0.045417
 21
0.003167
 31
0.0
  0
LINE
  5
1E8
100
AcDbEntity
  8
1
  6
CONTINUOUS
 62
     2
100
AcDbLine
 10
-0.045417
 20
0.003167
 30
0.0
 11
-0.04625
 21
-0.000417
 31
0.0
  0
LINE
  5
1E9
100
AcDbEntity
  8
1
  6
CONTINUOUS
 62
     2
100
AcDbLine
 10
-0.04625
 20
-0.000417
 30
0.0
 11
-0.047
 21
-0.00275
 31
0.0
  0
LINE
  5
1EA
100
AcDbEntity
  8
1
  6
CONTINUOUS
 62
     2
100
AcDbLine
 10
-0.047
 20
-0.00275
 30
0.0
 11
-0.048167
 21
-0.00475
 31
0.0
  0
ENDBLK
  5
1EB
100
AcDbEntity
  8
1
  6
CONTINUOUS
 62
     2
100
AcDbBlockEnd
  0
BLOCK
  5
335
100
AcDbEntity
  8
1
  6
CONTINUOUS
 62
     1
100
AcDbBlockBegin
  2
BARBND
 70
     0
 10
0.0
 20
0.0
 30
0.0
  3
BARBND
  1

  0
CIRCLE
  5
336
100
AcDbEntity
  8
1
  6
CONTINUOUS
 62
     1
100
AcDbCircle
 10
0.001417
 20
0.00005
 30
0.0
 40
0.00132
210
0.0
220
0.0
230
1.0
  0
LINE
  5
337
100
AcDbEntity
  8
1
  6
CONTINUOUS
 62
     1
100
AcDbLine
 10
0.000083
 20
0.0
 30
0.0
 11
0.002667
 21
0.000333
 31
0.0
  0
LINE
  5
338
100
AcDbEntity
  8
1
  6
CONTINUOUS
 62
     1
100
AcDbLine
 10
0.002667
 20
0.000333
 30
0.0
 11
0.000333
 21
0.000833
 31
0.0
  0
LINE
  5
339
100
AcDbEntity
  8
1
  6
CONTINUOUS
 62
     1
100
AcDbLine
 10
0.000333
 20
0.000833
 30
0.0
 11
0.002667
 21
-0.00025
 31
0.0
  0
LINE
  5
33A
100
AcDbEntity
  8
1
  6
CONTINUOUS
 62
     1
100
AcDbLine
 10
0.002667
 20
-0.00025
 30
0.0
 11
0.00025
 21
-0.000667
 31
0.0
  0
LINE
  5
33B
100
AcDbEntity
  8
1
  6
CONTINUOUS
 62
     1
100
AcDbLine
 10
0.00025
 20
-0.000667
 30
0.0
 11
0.00225
 21
-0.001
 31
0.0
  0
LINE
  5
33C
100
AcDbEntity
  8
1
  6
CONTINUOUS
 62
     1
100
AcDbLine
 10
0.00225
 20
-0.001
 30
0.0
 11
0.00225
 21
0.001083
 31
0.0
  0
LINE
  5
33D
100
AcDbEntity
  8
1
  6
CONTINUOUS
 62
     1
100
AcDbLine
 10
0.00225
 20
0.001083
 30
0.0
 11
0.001333
 21
-0.00125
 31
0.0
  0
LINE
  5
33E
100
AcDbEntity
  8
1
  6
CONTINUOUS
 62
     1
100
AcDbLine
 10
0.001333
 20
-0.00125
 30
0.0
 11
0.001583
 21
0.001333
 31
0.0
  0
LINE
  5
33F
100
AcDbEntity
  8
1
  6
CONTINUOUS
 62
     1
100
AcDbLine
 10
0.001583
 20
0.001333
 30
0.0
 11
0.000583
 21
-0.001
 31
0.0
  0
LINE
  5
340
100
AcDbEntity
  8
1
  6
CONTINUOUS
 62
     1
100
AcDbLine
 10
0.000583
 20
-0.001
 30
0.0
 11
0.000917
 21
0.001333
 31
0.0
  0
LINE
  5
341
100
AcDbEntity
  8
1
  6
CONTINUOUS
 62
     1
100
AcDbLine
 10
0.000917
 20
0.001333
 30
0.0
 11
0.00175
 21
-0.00125
 31
0.0
  0
LINE
  5
342
100
AcDbEntity
  8
1
  6
CONTINUOUS
 62
     1
100
AcDbLine
 10
0.00175
 20
-0.00125
 30
0.0
 11
0.000167
 21
0.0005
 31
0.0
  0
LINE
  5
343
100
AcDbEntity
  8
1
  6
CONTINUOUS
 62
     1
100
AcDbLine
 10
0.000167
 20
0.0005
 30
0.0
 11
0.002583
 21
0.000667
 31
0.0
  0
LINE
  5
344
100
AcDbEntity
  8
1
  6
CONTINUOUS
 62
     1
100
AcDbLine
 10
0.002583
 20
0.000667
 30
0.0
 11
0.000917
 21
-0.001167
 31
0.0
  0
LINE
  5
345
100
AcDbEntity
  8
1
  6
CONTINUOUS
 62
     1
100
AcDbLine
 10
0.000917
 20
-0.001167
 30
0.0
 11
0.002
 21
0.00125
 31
0.0
  0
LINE
  5
346
100
AcDbEntity
  8
1
  6
CONTINUOUS
 62
     1
100
AcDbLine
 10
0.002
 20
0.00125
 30
0.0
 11
0.000333
 21
0.000833
 31
0.0
  0
LINE
  5
347
100
AcDbEntity
  8
1
  6
CONTINUOUS
 62
     1
100
AcDbLine
 10
0.000333
 20
0.000833
 30
0.0
 11
0.00025
 21
-0.000667
 31
0.0
  0
LINE
  5
348
100
AcDbEntity
  8
1
  6
CONTINUOUS
 62
     1
100
AcDbLine
 10
0.00025
 20
-0.000667
 30
0.0
 11
0.001333
 21
-0.00125
 31
0.0
  0
LINE
  5
349
100
AcDbEntity
  8
1
  6
CONTINUOUS
 62
     1
100
AcDbLine
 10
0.001333
 20
-0.00125
 30
0.0
 11
0.00225
 21
-0.001
 31
0.0
  0
LINE
  5
34A
100
AcDbEntity
  8
1
  6
CONTINUOUS
 62
     1
100
AcDbLine
 10
0.00225
 20
-0.001
 30
0.0
 11
0.002667
 21
-0.00025
 31
0.0
  0
LINE
  5
34B
100
AcDbEntity
  8
1
  6
CONTINUOUS
 62
     1
100
AcDbLine
 10
0.002667
 20
-0.00025
 30
0.0
 11
0.002583
 21
0.000667
 31
0.0
  0
LINE
  5
34C
100
AcDbEntity
  8
1
  6
CONTINUOUS
 62
     1
100
AcDbLine
 10
0.002583
 20
0.000667
 30
0.0
 11
0.002
 21
0.00125
 31
0.0
  0
LINE
  5
34D
100
AcDbEntity
  8
1
  6
CONTINUOUS
 62
     1
100
AcDbLine
 10
0.002
 20
0.00125
 30
0.0
 11
0.001333
 21
0.000167
 31
0.0
  0
LINE
  5
34E
100
AcDbEntity
  8
1
  6
CONTINUOUS
 62
     1
100
AcDbLine
 10
0.001333
 20
0.000167
 30
0.0
 11
0.0025
 21
-0.00075
 31
0.0
  0
LINE
  5
34F
100
AcDbEntity
  8
1
  6
CONTINUOUS
 62
     1
100
AcDbLine
 10
0.0025
 20
-0.00075
 30
0.0
 11
0.000583
 21
-0.001
 31
0.0
  0
LINE
  5
350
100
AcDbEntity
  8
1
  6
CONTINUOUS
 62
     1
100
AcDbLine
 10
0.000583
 20
-0.001
 30
0.0
 11
0.001333
 21
0.000167
 31
0.0
  0
LINE
  5
351
100
AcDbEntity
  8
1
  6
CONTINUOUS
 62
     1
100
AcDbLine
 10
0.001333
 20
0.000167
 30
0.0
 11
0.00025
 21
0.000667
 31
0.0
  0
LINE
  5
352
100
AcDbEntity
  8
1
  6
CONTINUOUS
 62
     1
100
AcDbLine
 10
0.00025
 20
0.000667
 30
0.0
 11
0.00125
 21
0.001333
 31
0.0
  0
LINE
  5
353
100
AcDbEntity
  8
1
  6
CONTINUOUS
 62
     1
100
AcDbLine
 10
0.00125
 20
0.001333
 30
0.0
 11
0.001333
 21
0.00025
 31
0.0
  0
LINE
  5
354
100
AcDbEntity
  8
1
  6
CONTINUOUS
 62
     1
100
AcDbLine
 10
0.001333
 20
0.00025
 30
0.0
 11
0.002167
 21
-0.001
 31
0.0
  0
LINE
  5
355
100
AcDbEntity
  8
1
  6
CONTINUOUS
 62
     1
100
AcDbLine
 10
0.002167
 20
-0.001
 30
0.0
 11
0.000167
 21
0.00025
 31
0.0
  0
LINE
  5
356
100
AcDbEntity
  8
1
  6
CONTINUOUS
 62
     1
100
AcDbLine
 10
0.000167
 20
0.00025
 30
0.0
 11
0.0015
 21
0.000583
 31
0.0
  0
LINE
  5
357
100
AcDbEntity
  8
1
  6
CONTINUOUS
 62
     1
100
AcDbLine
 10
0.0015
 20
0.000583
 30
0.0
 11
0.00225
 21
0.001083
 31
0.0
  0
LINE
  5
358
100
AcDbEntity
  8
1
  6
CONTINUOUS
 62
     1
100
AcDbLine
 10
0.0005
 20
0.000833
 30
0.0
 11
0.000417
 21
-0.000667
 31
0.0
  0
LINE
  5
359
100
AcDbEntity
  8
1
  6
CONTINUOUS
 62
     1
100
AcDbLine
 10
0.000583
 20
0.000833
 30
0.0
 11
0.0005
 21
-0.000667
 31
0.0
  0
LINE
  5
35A
100
AcDbEntity
  8
1
  6
CONTINUOUS
 62
     1
100
AcDbLine
 10
0.00075
 20
0.000833
 30
0.0
 11
0.000667
 21
-0.000667
 31
0.0
  0
LINE
  5
35B
100
AcDbEntity
  8
1
  6
CONTINUOUS
 62
     1
100
AcDbLine
 10
0.000833
 20
0.000833
 30
0.0
 11
0.00075
 21
-0.000667
 31
0.0
  0
LINE
  5
35C
100
AcDbEntity
  8
1
  6
CONTINUOUS
 62
     1
100
AcDbLine
 10
0.001
 20
0.000833
 30
0.0
 11
0.000917
 21
-0.000667
 31
0.0
  0
LINE
  5
35D
100
AcDbEntity
  8
1
  6
CONTINUOUS
 62
     1
100
AcDbLine
 10
0.001167
 20
0.000833
 30
0.0
 11
0.001083
 21
-0.000667
 31
0.0
  0
LINE
  5
35E
100
AcDbEntity
  8
1
  6
CONTINUOUS
 62
     1
100
AcDbLine
 10
0.001333
 20
0.000833
 30
0.0
 11
0.00125
 21
-0.000667
 31
0.0
  0
LINE
  5
35F
100
AcDbEntity
  8
1
  6
CONTINUOUS
 62
     1
100
AcDbLine
 10
0.001417
 20
0.000833
 30
0.0
 11
0.001333
 21
-0.000667
 31
0.0
  0
LINE
  5
360
100
AcDbEntity
  8
1
  6
CONTINUOUS
 62
     1
100
AcDbLine
 10
0.0015
 20
0.000833
 30
0.0
 11
0.001417
 21
-0.000667
 31
0.0
  0
LINE
  5
361
100
AcDbEntity
  8
1
  6
CONTINUOUS
 62
     1
100
AcDbLine
 10
0.001667
 20
0.00075
 30
0.0
 11
0.0015
 21
-0.00075
 31
0.0
  0
LINE
  5
362
100
AcDbEntity
  8
1
  6
CONTINUOUS
 62
     1
100
AcDbLine
 10
0.001917
 20
0.00075
 30
0.0
 11
0.001833
 21
-0.00075
 31
0.0
  0
LINE
  5
363
100
AcDbEntity
  8
1
  6
CONTINUOUS
 62
     1
100
AcDbLine
 10
0.001917
 20
0.00075
 30
0.0
 11
0.001833
 21
-0.00075
 31
0.0
  0
LINE
  5
364
100
AcDbEntity
  8
1
  6
CONTINUOUS
 62
     1
100
AcDbLine
 10
0.002
 20
0.00075
 30
0.0
 11
0.001917
 21
-0.00075
 31
0.0
  0
LINE
  5
365
100
AcDbEntity
  8
1
  6
CONTINUOUS
 62
     1
100
AcDbLine
 10
0.002083
 20
0.00075
 30
0.0
 11
0.002
 21
-0.00075
 31
0.0
  0
LINE
  5
366
100
AcDbEntity
  8
1
  6
CONTINUOUS
 62
     1
100
AcDbLine
 10
0.00225
 20
0.00075
 30
0.0
 11
0.002167
 21
-0.00075
 31
0.0
  0
LINE
  5
367
100
AcDbEntity
  8
1
  6
CONTINUOUS
 62
     1
100
AcDbLine
 10
0.002167
 20
0.00075
 30
0.0
 11
0.002083
 21
-0.00075
 31
0.0
  0
LINE
  5
368
100
AcDbEntity
  8
1
  6
CONTINUOUS
 62
     1
100
AcDbLine
 10
0.002417
 20
0.00075
 30
0.0
 11
0.002333
 21
-0.00075
 31
0.0
  0
LINE
  5
369
100
AcDbEntity
  8
1
  6
CONTINUOUS
 62
     1
100
AcDbLine
 10
0.002583
 20
0.00075
 30
0.0
 11
0.0025
 21
-0.00075
 31
0.0
  0
LINE
  5
36A
100
AcDbEntity
  8
1
  6
CONTINUOUS
 62
     1
100
AcDbLine
 10
0.00025
 20
-0.000583
 30
0.0
 11
0.00225
 21
-0.000917
 31
0.0
  0
LINE
  5
36B
100
AcDbEntity
  8
1
  6
CONTINUOUS
 62
     1
100
AcDbLine
 10
0.000333
 20
-0.0005
 30
0.0
 11
0.00225
 21
-0.000833
 31
0.0
  0
LINE
  5
36C
100
AcDbEntity
  8
1
  6
CONTINUOUS
 62
     1
100
AcDbLine
 10
0.000333
 20
-0.000417
 30
0.0
 11
0.00225
 21
-0.00075
 31
0.0
  0
LINE
  5
36D
100
AcDbEntity
  8
1
  6
CONTINUOUS
 62
     1
100
AcDbLine
 10
0.000333
 20
-0.000333
 30
0.0
 11
0.002333
 21
-0.000667
 31
0.0
  0
LINE
  5
36E
100
AcDbEntity
  8
1
  6
CONTINUOUS
 62
     1
100
AcDbLine
 10
0.000333
 20
-0.000083
 30
0.0
 11
0.002333
 21
-0.0005
 31
0.0
  0
LINE
  5
36F
100
AcDbEntity
  8
1
  6
CONTINUOUS
 62
     1
100
AcDbLine
 10
0.000417
 20
0.000083
 30
0.0
 11
0.002333
 21
-0.000333
 31
0.0
  0
LINE
  5
370
100
AcDbEntity
  8
1
  6
CONTINUOUS
 62
     1
100
AcDbLine
 10
0.000417
 20
0.000167
 30
0.0
 11
0.002333
 21
-0.00025
 31
0.0
  0
LINE
  5
371
100
AcDbEntity
  8
1
  6
CONTINUOUS
 62
     1
100
AcDbLine
 10
0.000417
 20
0.00025
 30
0.0
 11
0.002417
 21
-0.000167
 31
0.0
  0
LINE
  5
372
100
AcDbEntity
  8
1
  6
CONTINUOUS
 62
     1
100
AcDbLine
 10
0.000417
 20
0.000333
 30
0.0
 11
0.002417
 21
0.0
 31
0.0
  0
LINE
  5
373
100
AcDbEntity
  8
1
  6
CONTINUOUS
 62
     1
100
AcDbLine
 10
0.0005
 20
0.000417
 30
0.0
 11
0.002417
 21
0.000083
 31
0.0
  0
LINE
  5
374
100
AcDbEntity
  8
1
  6
CONTINUOUS
 62
     1
100
AcDbLine
 10
0.0005
 20
0.000583
 30
0.0
 11
0.0025
 21
0.000167
 31
0.0
  0
LINE
  5
375
100
AcDbEntity
  8
1
  6
CONTINUOUS
 62
     1
100
AcDbLine
 10
0.0005
 20
0.000667
 30
0.0
 11
0.0025
 21
0.00025
 31
0.0
  0
LINE
  5
376
100
AcDbEntity
  8
1
  6
CONTINUOUS
 62
     1
100
AcDbLine
 10
0.0005
 20
0.00075
 30
0.0
 11
0.0025
 21
0.000417
 31
0.0
  0
LINE
  5
377
100
AcDbEntity
  8
1
  6
CONTINUOUS
 62
     1
100
AcDbLine
 10
0.0005
 20
0.000833
 30
0.0
 11
0.0025
 21
0.0005
 31
0.0
  0
LINE
  5
378
100
AcDbEntity
  8
1
  6
CONTINUOUS
 62
     1
100
AcDbLine
 10
0.000583
 20
0.001
 30
0.0
 11
0.0025
 21
0.000667
 31
0.0
  0
LINE
  5
379
100
AcDbEntity
  8
1
  6
CONTINUOUS
 62
     1
100
AcDbLine
 10
0.001833
 20
0.00075
 30
0.0
 11
0.001667
 21
-0.00075
 31
0.0
  0
LINE
  5
37A
100
AcDbEntity
  8
1
  6
CONTINUOUS
 62
     1
100
AcDbLine
 10
0.001083
 20
0.000833
 30
0.0
 11
0.001
 21
-0.000667
 31
0.0
  0
LINE
  5
37B
100
AcDbEntity
  8
1
  6
CONTINUOUS
 62
     1
100
AcDbLine
 10
0.000667
 20
0.000833
 30
0.0
 11
0.000583
 21
-0.000667
 31
0.0
  0
LINE
  5
37C
100
AcDbEntity
  8
1
  6
CONTINUOUS
 62
     1
100
AcDbLine
 10
0.00125
 20
0.000833
 30
0.0
 11
0.001167
 21
-0.000667
 31
0.0
  0
LINE
  5
37D
100
AcDbEntity
  8
1
  6
CONTINUOUS
 62
     1
100
AcDbLine
 10
0.002333
 20
0.00075
 30
0.0
 11
0.00225
 21
-0.00075
 31
0.0
  0
ENDBLK
  5
37E
100
AcDbEntity
  8
1
  6
CONTINUOUS
 62
     1
100
AcDbBlockEnd
  0
BLOCK
  5
39A
100
AcDbEntity
  8
1
  6
CONTINUOUS
 62
     2
100
AcDbBlockBegin
  2
CIRCLE
 70
     0
 10
0.0
 20
0.0
 30
0.0
  3
CIRCLE
  1

  0
CIRCLE
  5
39B
100
AcDbEntity
  8
1
  6
CONTINUOUS
 62
     2
100
AcDbCircle
 10
-0.000167
 20
0.00025
 30
0.0
 40
0.008333
210
0.0
220
0.0
230
1.0
  0
ENDBLK
  5
39C
100
AcDbEntity
  8
1
  6
CONTINUOUS
 62
     2
100
AcDbBlockEnd
  0
BLOCK
  5
5F7
100
AcDbEntity
  8
16
  6
CONTINUOUS
 62
     2
100
AcDbBlockBegin
  2
NOTE
 70
     0
 10
0.0
 20
0.0
 30
0.0
  3
NOTE
  1

  0
TEXT
  5
5F8
100
AcDbEntity
  8
16
  6
CONTINUOUS
 62
     2
100
AcDbText
 10
-0.445833
 20
-1.716667
 30
0.0
 40
2.999972
  1
ROTATE POINT IS LOWER RIGHT EDGE OF SHEET IN VERTICAL POSITION
 41
0.999996
  7
TXT
 72
     4
 11
73.383667
 21
-0.216667
 31
0.0
210
0.0
220
0.0
230
1.0
100
AcDbText
  0
TEXT
  5
5F9
100
AcDbEntity
  8
16
  6
CONTINUOUS
 62
   110
100
AcDbText
 10
6.281167
 20
-6.89575
 30
0.0
 40
2.999972
  1
ALL VIEWS ARE FOR HORIZONTAL POSITION EXCEPT PRINT VIEW
 41
1.000004
  7
TXT
 72
     4
 11
72.3045
 21
-5.39575
 31
0.0
210
0.0
220
0.0
230
1.0
100
AcDbText
  0
ENDBLK
  5
5FA
100
AcDbEntity
  8
16
  6
CONTINUOUS
 62
   110
100
AcDbBlockEnd
  0
ENDSEC
  0
SECTION
  2
ENTITIES
  0
LINE
  5
2B
100
AcDbEntity
  8
1
  6
CONTINUOUS
 62
     1
100
AcDbLine
 10
6.50275
 20
-1.3755
 30
0.0
 11
9.449417
 21
-1.3755
 31
0.0
  0
POINT
  5
2C
100
AcDbEntity
  8
1
  6
CONTINUOUS
 62
     1
100
AcDbPoint
 10
9.449417
 20
-1.3755
 30
0.0
  0
LINE
  5
2D
100
AcDbEntity
  8
1
  6
CONTINUOUS
 62
     1
100
AcDbLine
 10
9.449417
 20
-1.3755
 30
0.0
 11
9.449417
 21
0.444583
 31
0.0
  0
LINE
  5
2E
100
AcDbEntity
  8
1
  6
CONTINUOUS
 62
     1
100
AcDbLine
 10
9.449417
 20
0.444583
 30
0.0
 11
6.50275
 21
0.444583
 31
0.0
  0
LINE
  5
2F
100
AcDbEntity
  8
1
  6
CONTINUOUS
 62
     1
100
AcDbLine
 10
6.50275
 20
0.444583
 30
0.0
 11
6.50275
 21
-1.3755
 31
0.0
  0
LINE
  5
30
100
AcDbEntity
  8
1
  6
CONTINUOUS
 62
     1
100
AcDbLine
 10
6.50275
 20
-1.3755
 30
0.0
 11
8.864417
 21
-1.3755
 31
0.0
  0
LINE
  5
31
100
AcDbEntity
  8
1
  6
CONTINUOUS
 62
     1
100
AcDbLine
 10
8.864417
 20
-1.3755
 30
0.0
 11
8.864417
 21
-1.050417
 31
0.0
  0
LINE
  5
32
100
AcDbEntity
  8
1
  6
CONTINUOUS
 62
     1
100
AcDbLine
 10
8.864417
 20
-1.050417
 30
0.0
 11
9.449417
 21
-1.050417
 31
0.0
  0
LINE
  5
33
100
AcDbEntity
  8
1
  6
CONTINUOUS
 62
     1
100
AcDbLine
 10
8.864417
 20
-1.115417
 30
0.0
 11
9.449417
 21
-1.115417
 31
0.0
  0
LINE
  5
34
100
AcDbEntity
  8
1
  6
CONTINUOUS
 62
     1
100
AcDbLine
 10
8.864417
 20
-1.299667
 30
0.0
 11
9.29775
 21
-1.299667
 31
0.0
  0
LINE
  5
35
100
AcDbEntity
  8
1
  6
CONTINUOUS
 62
     1
100
AcDbLine
 10
9.29775
 20
-1.115417
 30
0.0
 11
9.29775
 21
-1.3755
 31
0.0
  0
LINE
  5
36
100
AcDbEntity
  8
1
  6
CONTINUOUS
 62
     1
100
AcDbLine
 10
9.29775
 20
-1.1425
 30
0.0
 11
9.449417
 21
-1.1425
 31
0.0
  0
LINE
  5
37
100
AcDbEntity
  8
1
  6
CONTINUOUS
 62
     1
100
AcDbLine
 10
9.29775
 20
-1.169583
 30
0.0
 11
9.449417
 21
-1.169583
 31
0.0
  0
LINE
  5
38
100
AcDbEntity
  8
1
  6
CONTINUOUS
 62
     1
100
AcDbLine
 10
9.29775
 20
-1.196667
 30
0.0
 11
9.449417
 21
-1.196667
 31
0.0
  0
LINE
  5
39
100
AcDbEntity
  8
1
  6
CONTINUOUS
 62
     1
100
AcDbLine
 10
9.29775
 20
-1.22375
 30
0.0
 11
9.449417
 21
-1.22375
 31
0.0
  0
LINE
  5
3A
100
AcDbEntity
  8
1
  6
CONTINUOUS
 62
     1
100
AcDbLine
 10
9.29775
 20
-1.250833
 30
0.0
 11
9.449417
 21
-1.250833
 31
0.0
  0
LINE
  5
3B
100
AcDbEntity
  8
1
  6
CONTINUOUS
 62
     1
100
AcDbLine
 10
9.29775
 20
-1.277917
 30
0.0
 11
9.449417
 21
-1.277917
 31
0.0
  0
LINE
  5
3C
100
AcDbEntity
  8
1
  6
CONTINUOUS
 62
     1
100
AcDbLine
 10
9.29775
 20
-1.305083
 30
0.0
 11
9.449417
 21
-1.305083
 31
0.0
  0
LINE
  5
3D
100
AcDbEntity
  8
1
  6
CONTINUOUS
 62
     1
100
AcDbLine
 10
8.431083
 20
-1.3755
 30
0.0
 11
8.431083
 21
-1.15875
 31
0.0
  0
LINE
  5
3E
100
AcDbEntity
  8
1
  6
CONTINUOUS
 62
     1
100
AcDbLine
 10
8.431083
 20
-1.15875
 30
0.0
 11
8.864417
 21
-1.15875
 31
0.0
  0
LINE
  5
3F
100
AcDbEntity
  8
1
  6
CONTINUOUS
 62
     1
100
AcDbLine
 10
8.431083
 20
-1.2075
 30
0.0
 11
8.864417
 21
-1.2075
 31
0.0
  0
LINE
  5
40
100
AcDbEntity
  8
1
  6
CONTINUOUS
 62
     1
100
AcDbLine
 10
8.756083
 20
-1.2075
 30
0.0
 11
8.756083
 21
-1.3755
 31
0.0
  0
LINE
  5
41
100
AcDbEntity
  8
1
  6
CONTINUOUS
 62
     1
100
AcDbLine
 10
8.756083
 20
-1.353833
 30
0.0
 11
8.864417
 21
-1.353833
 31
0.0
  0
LINE
  5
42
100
AcDbEntity
  8
1
  6
CONTINUOUS
 62
     1
100
AcDbLine
 10
8.756083
 20
-1.332167
 30
0.0
 11
8.864417
 21
-1.332167
 31
0.0
  0
LINE
  5
43
100
AcDbEntity
  8
1
  6
CONTINUOUS
 62
     1
100
AcDbLine
 10
8.756083
 20
-1.3105
 30
0.0
 11
8.864417
 21
-1.3105
 31
0.0
  0
LINE
  5
44
100
AcDbEntity
  8
1
  6
CONTINUOUS
 62
     1
100
AcDbLine
 10
8.756083
 20
-1.28875
 30
0.0
 11
8.864417
 21
-1.28875
 31
0.0
  0
LINE
  5
45
100
AcDbEntity
  8
1
  6
CONTINUOUS
 62
     1
100
AcDbLine
 10
8.756083
 20
-1.267083
 30
0.0
 11
8.864417
 21
-1.267083
 31
0.0
  0
LINE
  5
46
100
AcDbEntity
  8
1
  6
CONTINUOUS
 62
     1
100
AcDbLine
 10
8.756083
 20
-1.245417
 30
0.0
 11
8.864417
 21
-1.245417
 31
0.0
  0
LINE
  5
47
100
AcDbEntity
  8
1
  6
CONTINUOUS
 62
     1
100
AcDbLine
 10
8.81025
 20
-1.244917
 30
0.0
 11
8.81025
 21
-1.3755
 31
0.0
  0
LINE
  5
48
100
AcDbEntity
  8
1
  6
CONTINUOUS
 62
     1
100
AcDbLine
 10
8.945667
 20
0.444583
 30
0.0
 11
8.945667
 21
0.357917
 31
0.0
  0
LINE
  5
49
100
AcDbEntity
  8
1
  6
CONTINUOUS
 62
     1
100
AcDbLine
 10
8.945667
 20
0.357917
 30
0.0
 11
9.449417
 21
0.357917
 31
0.0
  0
LINE
  5
4A
100
AcDbEntity
  8
1
  6
CONTINUOUS
 62
     1
100
AcDbLine
 10
8.945667
 20
0.40125
 30
0.0
 11
9.449417
 21
0.40125
 31
0.0
  0
LINE
  5
4B
100
AcDbEntity
  8
1
  6
CONTINUOUS
 62
     1
100
AcDbLine
 10
9.00525
 20
0.444583
 30
0.0
 11
9.00525
 21
0.357917
 31
0.0
  0
LINE
  5
4C
100
AcDbEntity
  8
1
  6
CONTINUOUS
 62
     1
100
AcDbLine
 10
9.064833
 20
0.444583
 30
0.0
 11
9.064833
 21
0.357917
 31
0.0
  0
LINE
  5
4D
100
AcDbEntity
  8
1
  6
CONTINUOUS
 62
     1
100
AcDbLine
 10
9.205667
 20
0.444583
 30
0.0
 11
9.205667
 21
0.357917
 31
0.0
  0
LINE
  5
4E
100
AcDbEntity
  8
1
  6
CONTINUOUS
 62
     1
100
AcDbLine
 10
9.3465
 20
0.444583
 30
0.0
 11
9.3465
 21
0.357917
 31
0.0
  0
LINE
  5
4F
100
AcDbEntity
  8
1
  6
CONTINUOUS
 62
     1
100
AcDbLine
 10
9.396333
 20
0.444583
 30
0.0
 11
9.396333
 21
0.357917
 31
0.0
  0
TEXT
  5
51
100
AcDbEntity
  8
1
  6
CONTINUOUS
 62
    91
100
AcDbText
 10
8.875
 20
-1.074583
 30
0.0
 40
0.02
  1
THE WEST VIRGINIA DEPARTMENT OF HIGHWAYS
  7
ROMANT
 72
     1
 11
9.1555
 21
-1.054583
 31
0.0
210
0.0
220
0.0
230
1.0
100
AcDbText
 73
     3
  0
TEXT
  5
52
100
AcDbEntity
  8
1
  6
CONTINUOUS
 62
    91
100
AcDbText
 10
9.041083
 20
-1.100167
 30
0.0
 40
0.02
  1
STRUCTURES DIVISION
  7
ROMANT
 72
     1
 11
9.16125
 21
-1.100167
 31
0.0
210
0.0
220
0.0
230
1.0
100
AcDbText
  0
TEXT
  5
54
100
AcDbEntity
  8
1
  6
CONTINUOUS
 62
   253
100
AcDbText
 10
9.304833
 20
-1.123
 30
0.0
 40
0.005418
  1
DESIGNED BY:
 41
1.000092
  7
TXT
 11
9.304833
 21
-1.117583
 31
0.0
210
0.0
220
0.0
230
1.0
100
AcDbText
 73
     3
  0
LINE
  5
55
100
AcDbEntity
  8
1
  6
CONTINUOUS
 62
   253
100
AcDbLine
 10
9.30375
 20
-1.107833
 30
0.0
 11
9.30375
 21
-1.107333
 31
0.0
  0
TEXT
  5
56
100
AcDbEntity
  8
1
  6
CONTINUOUS
 62
   253
100
AcDbText
 10
9.30425
 20
-1.150083
 30
0.0
 40
0.005418
  1
DRAWN BY:
 41
1.001015
  7
TXT
 11
9.30425
 21
-1.144667
 31
0.0
210
0.0
220
0.0
230
1.0
100
AcDbText
 73
     3
  0
TEXT
  5
57
100
AcDbEntity
  8
1
  6
CONTINUOUS
 62
   253
100
AcDbText
 10
9.304833
 20
-1.17775
 30
0.0
 40
0.005418
  1
CHECKED BY:
 41
0.999262
  7
TXT
 11
9.304833
 21
-1.172333
 31
0.0
210
0.0
220
0.0
230
1.0
100
AcDbText
 73
     3
  0
TEXT
  5
58
100
AcDbEntity
  8
1
  6
CONTINUOUS
 62
   253
100
AcDbText
 10
9.304833
 20
-1.205917
 30
0.0
 40
0.005418
  1
REVIEWED BY:
 41
0.999354
  7
TXT
 11
9.304833
 21
-1.2005
 31
0.0
210
0.0
220
0.0
230
1.0
100
AcDbText
 73
     3
  0
TEXT
  5
59
100
AcDbEntity
  8
1
  6
CONTINUOUS
 62
   253
100
AcDbText
 10
9.30425
 20
-1.232417
 30
0.0
 40
0.005418
  1
DATE:
 41
1.001938
  7
TXT
 11
9.30425
 21
-1.227
 31
0.0
210
0.0
220
0.0
230
1.0
100
AcDbText
 73
     3
  0
TEXT
  5
5A
100
AcDbEntity
  8
1
  6
CONTINUOUS
 62
   253
100
AcDbText
 10
9.30375
 20
-1.260083
 30
0.0
 40
0.005418
  1
SCALE:
 41
1.000092
  7
TXT
 11
9.30375
 21
-1.254667
 31
0.0
210
0.0
220
0.0
230
1.0
100
AcDbText
 73
     3
  0
TEXT
  5
5B
100
AcDbEntity
  8
1
  6
CONTINUOUS
 62
   253
100
AcDbText
 10
9.30375
 20
-1.286583
 30
0.0
 40
0.005418
  1
SHEET NO.:
 41
0.999169
  7
TXT
 11
9.30375
 21
-1.281167
 31
0.0
210
0.0
220
0.0
230
1.0
100
AcDbText
 73
     3
  0
TEXT
  5
5C
100
AcDbEntity
  8
1
  6
CONTINUOUS
 62
   253
100
AcDbText
 10
9.358417
 20
-1.303417
 30
0.0
 40
0.005418
  1
OF
 41
1.000092
  7
TXT
 11
9.358417
 21
-1.298
 31
0.0
210
0.0
220
0.0
230
1.0
100
AcDbText
 73
     3
  0
TEXT
  5
5D
100
AcDbEntity
  8
1
  6
CONTINUOUS
 62
   253
100
AcDbText
 10
9.315083
 20
-1.322917
 30
0.0
 40
0.009166
  1
BRIDGE NUMBER
 41
1.00491
  7
TXT
 72
     1
 11
9.371083
 21
-1.31375
 31
0.0
210
0.0
220
0.0
230
1.0
100
AcDbText
 73
     3
  0
TEXT
  5
5E
100
AcDbEntity
  8
1
  6
CONTINUOUS
 62
   253
100
AcDbText
 10
8.954333
 20
0.429917
 30
0.0
 40
0.008167
  1
PUBLIC
 41
0.994918
  7
TXT
 72
     1
 11
8.975333
 21
0.438083
 31
0.0
210
0.0
220
0.0
230
1.0
100
AcDbText
 73
     3
  0
TEXT
  5
5F
100
AcDbEntity
  8
1
  6
CONTINUOUS
 62
   253
100
AcDbText
 10
8.955417
 20
0.418
 30
0.0
 40
0.008167
  1
ROADS
 41
0.994918
  7
TXT
 72
     1
 11
8.973917
 21
0.426167
 31
0.0
210
0.0
220
0.0
230
1.0
100
AcDbText
 73
     3
  0
TEXT
  5
60
100
AcDbEntity
  8
1
  6
CONTINUOUS
 62
   253
100
AcDbText
 10
8.9625
 20
0.406083
 30
0.0
 40
0.008167
  1
DIV.
 41
0.993081
  7
TXT
 72
     1
 11
8.9735
 21
0.41425
 31
0.0
210
0.0
220
0.0
230
1.0
100
AcDbText
 73
     3
  0
TEXT
  5
61
100
AcDbEntity
  8
1
  6
CONTINUOUS
 62
   253
100
AcDbText
 10
8.95925
 20
0.377417
 30
0.0
 40
0.008083
  1
W.VA.
 41
1.003711
  7
TXT
 72
     1
 11
8.974083
 21
0.3855
 31
0.0
210
0.0
220
0.0
230
1.0
100
AcDbText
 73
     3
  0
TEXT
  5
62
100
AcDbEntity
  8
1
  6
CONTINUOUS
 62
   253
100
AcDbText
 10
9.015
 20
0.429917
 30
0.0
 40
0.008167
  1
STATE
 41
0.99602
  7
TXT
 72
     1
 11
9.033667
 21
0.438083
 31
0.0
210
0.0
220
0.0
230
1.0
100
AcDbText
 73
     3
  0
TEXT
  5
63
100
AcDbEntity
  8
1
  6
CONTINUOUS
 62
   253
100
AcDbText
 10
9.01775
 20
0.416917
 30
0.0
 40
0.008167
  1
DIST.
 41
0.994918
  7
TXT
 72
     1
 11
9.032917
 21
0.425083
 31
0.0
210
0.0
220
0.0
230
1.0
100
AcDbText
 73
     3
  0
TEXT
  5
64
100
AcDbEntity
  8
1
  6
CONTINUOUS
 62
   253
100
AcDbText
 10
9.022083
 20
0.406083
 30
0.0
 40
0.008167
  1
NO.
 41
0.994918
  7
TXT
 72
     1
 11
9.030583
 21
0.41425
 31
0.0
210
0.0
220
0.0
230
1.0
100
AcDbText
 73
     3
  0
TEXT
  5
65
100
AcDbEntity
  8
1
  6
CONTINUOUS
 62
   253
100
AcDbText
 10
9.07675
 20
0.419667
 30
0.0
 40
0.008083
  1
PROJECT NUMBER
 41
1.005505
  7
TXT
 72
     1
 11
9.131583
 21
0.42775
 31
0.0
210
0.0
220
0.0
230
1.0
100
AcDbText
 73
     3
  0
TEXT
  5
66
100
AcDbEntity
  8
1
  6
CONTINUOUS
 62
   253
100
AcDbText
 10
9.25175
 20
0.418
 30
0.0
 40
0.008167
  1
COUNTY
 41
0.994
  7
TXT
 72
     1
 11
9.27425
 21
0.426167
 31
0.0
210
0.0
220
0.0
230
1.0
100
AcDbText
 73
     3
  0
TEXT
  5
67
100
AcDbEntity
  8
1
  6
CONTINUOUS
 62
   253
100
AcDbText
 10
9.351417
 20
0.4305
 30
0.0
 40
0.008083
  1
SHEET
 41
1.004021
  7
TXT
 72
     1
 11
9.369917
 21
0.438583
 31
0.0
210
0.0
220
0.0
230
1.0
100
AcDbText
 73
     3
  0
TEXT
  5
68
100
AcDbEntity
  8
1
  6
CONTINUOUS
 62
   253
100
AcDbText
 10
9.360583
 20
0.412083
 30
0.0
 40
0.008083
  1
NO.
 41
1.005134
  7
TXT
 72
     1
 11
9.369083
 21
0.420167
 31
0.0
210
0.0
220
0.0
230
1.0
100
AcDbText
 73
     3
  0
TEXT
  5
69
100
AcDbEntity
  8
1
  6
CONTINUOUS
 62
   253
100
AcDbText
 10
9.400667
 20
0.4305
 30
0.0
 40
0.008083
  1
TOTAL
 41
1.006247
  7
TXT
 72
     1
 11
9.419333
 21
0.438583
 31
0.0
210
0.0
220
0.0
230
1.0
100
AcDbText
 73
     3
  0
TEXT
  5
6A
100
AcDbEntity
  8
1
  6
CONTINUOUS
 62
   253
100
AcDbText
 10
9.403917
 20
0.412583
 30
0.0
 40
0.008167
  1
SHTS
 41
0.994918
  7
TXT
 72
     1
 11
9.4185
 21
0.42075
 31
0.0
210
0.0
220
0.0
230
1.0
100
AcDbText
 73
     3
  0
TEXT
  5
6B
100
AcDbEntity
  8
1
  6
CONTINUOUS
 62
   253
100
AcDbText
 10
8.561083
 20
-1.1945
 30
0.0
 40
0.005418
  1
DIRECTOR, STRUCTURES DIVISION
 41
1.000369
  7
TXT
 11
8.561083
 21
-1.189083
 31
0.0
210
0.0
220
0.0
230
1.0
100
AcDbText
 73
     3
  0
TEXT
  5
6C
100
AcDbEntity
  8
1
  6
CONTINUOUS
 62
   253
100
AcDbText
 10
8.75825
 20
-1.216167
 30
0.0
 40
0.005418
  1
PREPARED:
 41
1.001015
  7
TXT
 11
8.75825
 21
-1.21075
 31
0.0
210
0.0
220
0.0
230
1.0
100
AcDbText
 73
     3
  0
TEXT
  5
6D
100
AcDbEntity
  8
1
  6
CONTINUOUS
 62
   253
100
AcDbText
 10
8.759333
 20
-1.2525
 30
0.0
 40
0.005418
  1
REVISED:
 41
1.000092
  7
TXT
 11
8.759333
 21
-1.247083
 31
0.0
210
0.0
220
0.0
230
1.0
100
AcDbText
 73
     3
  0
TEXT
  5
6E
100
AcDbEntity
  8
1
  6
CONTINUOUS
 62
   253
100
AcDbText
 10
9.347583
 20
-1.26925
 30
0.0
 40
0.008083
  1
NONE
 41
1.005134
  7
TXT
 11
9.347583
 21
-1.261167
 31
0.0
210
0.0
220
0.0
230
1.0
100
AcDbText
 73
     3
  0
LINE
  5
6F
100
AcDbEntity
  8
1
  6
CONTINUOUS
 62
   253
100
AcDbLine
 10
8.789583
 20
0.292167
 30
0.0
 11
9.33125
 21
0.292167
 31
0.0
  0
LINE
  5
70
100
AcDbEntity
  8
1
  6
CONTINUOUS
 62
   253
100
AcDbLine
 10
8.789583
 20
0.258833
 30
0.0
 11
9.33125
 21
0.258833
 31
0.0
  0
LINE
  5
71
100
AcDbEntity
  8
1
  6
CONTINUOUS
 62
   253
100
AcDbLine
 10
8.789583
 20
0.2255
 30
0.0
 11
9.33125
 21
0.2255
 31
0.0
  0
LINE
  5
72
100
AcDbEntity
  8
1
  6
CONTINUOUS
 62
   253
100
AcDbLine
 10
8.789583
 20
0.192167
 30
0.0
 11
9.33125
 21
0.192167
 31
0.0
  0
LINE
  5
73
100
AcDbEntity
  8
1
  6
CONTINUOUS
 62
   253
100
AcDbLine
 10
8.789583
 20
0.158833
 30
0.0
 11
9.33125
 21
0.158833
 31
0.0
  0
LINE
  5
74
100
AcDbEntity
  8
1
  6
CONTINUOUS
 62
   253
100
AcDbLine
 10
8.789583
 20
0.1255
 30
0.0
 11
9.33125
 21
0.1255
 31
0.0
  0
LINE
  5
75
100
AcDbEntity
  8
1
  6
CONTINUOUS
 62
   253
100
AcDbLine
 10
8.789583
 20
0.092167
 30
0.0
 11
9.33125
 21
0.092167
 31
0.0
  0
LINE
  5
76
100
AcDbEntity
  8
1
  6
CONTINUOUS
 62
   253
100
AcDbLine
 10
8.789583
 20
0.058833
 30
0.0
 11
9.33125
 21
0.058833
 31
0.0
  0
LINE
  5
77
100
AcDbEntity
  8
1
  6
CONTINUOUS
 62
   253
100
AcDbLine
 10
8.789583
 20
0.0255
 30
0.0
 11
9.33125
 21
0.0255
 31
0.0
  0
LINE
  5
78
100
AcDbEntity
  8
1
  6
CONTINUOUS
 62
   253
100
AcDbLine
 10
8.789583
 20
-0.007833
 30
0.0
 11
9.33125
 21
-0.007833
 31
0.0
  0
LINE
  5
79
100
AcDbEntity
  8
1
  6
CONTINUOUS
 62
   253
100
AcDbLine
 10
8.789583
 20
-0.057833
 30
0.0
 11
9.33125
 21
-0.057833
 31
0.0
  0
LINE
  5
7A
100
AcDbEntity
  8
1
  6
CONTINUOUS
 62
   253
100
AcDbLine
 10
8.789583
 20
-0.107833
 30
0.0
 11
9.33125
 21
-0.107833
 31
0.0
  0
LINE
  5
7B
100
AcDbEntity
  8
1
  6
CONTINUOUS
 62
   253
100
AcDbLine
 10
8.789583
 20
-0.157833
 30
0.0
 11
9.33125
 21
-0.157833
 31
0.0
  0
LINE
  5
7C
100
AcDbEntity
  8
1
  6
CONTINUOUS
 62
   253
100
AcDbLine
 10
8.789583
 20
-0.207833
 30
0.0
 11
9.33125
 21
-0.207833
 31
0.0
  0
LINE
  5
7D
100
AcDbEntity
  8
1
  6
CONTINUOUS
 62
   253
100
AcDbLine
 10
8.74225
 20
-0.290417
 30
0.0
 11
9.36725
 21
-0.290417
 31
0.0
  0
LINE
  5
7E
100
AcDbEntity
  8
1
  6
CONTINUOUS
 62
   253
100
AcDbLine
 10
8.74225
 20
-0.32375
 30
0.0
 11
9.36725
 21
-0.32375
 31
0.0
  0
LINE
  5
7F
100
AcDbEntity
  8
1
  6
CONTINUOUS
 62
   253
100
AcDbLine
 10
8.74225
 20
-0.357083
 30
0.0
 11
9.36725
 21
-0.357083
 31
0.0
  0
LINE
  5
80
100
AcDbEntity
  8
1
  6
CONTINUOUS
 62
   253
100
AcDbLine
 10
8.74075
 20
-0.390417
 30
0.0
 11
9.36725
 21
-0.390417
 31
0.0
  0
LINE
  5
81
100
AcDbEntity
  8
1
  6
CONTINUOUS
 62
   253
100
AcDbLine
 10
8.74225
 20
-0.42375
 30
0.0
 11
9.36725
 21
-0.42375
 31
0.0
  0
LINE
  5
82
100
AcDbEntity
  8
1
  6
CONTINUOUS
 62
   253
100
AcDbLine
 10
8.74225
 20
-0.457083
 30
0.0
 11
9.36725
 21
-0.457083
 31
0.0
  0
LINE
  5
83
100
AcDbEntity
  8
1
  6
CONTINUOUS
 62
   253
100
AcDbLine
 10
8.74225
 20
-0.490417
 30
0.0
 11
9.36725
 21
-0.490417
 31
0.0
  0
LINE
  5
84
100
AcDbEntity
  8
1
  6
CONTINUOUS
 62
   253
100
AcDbLine
 10
8.74225
 20
-0.52375
 30
0.0
 11
9.36725
 21
-0.52375
 31
0.0
  0
LINE
  5
85
100
AcDbEntity
  8
1
  6
CONTINUOUS
 62
   253
100
AcDbLine
 10
8.7415
 20
-0.557083
 30
0.0
 11
9.36725
 21
-0.557083
 31
0.0
  0
LINE
  5
86
100
AcDbEntity
  8
1
  6
CONTINUOUS
 62
   253
100
AcDbLine
 10
8.7415
 20
-0.590417
 30
0.0
 11
9.36725
 21
-0.590417
 31
0.0
  0
LINE
  5
87
100
AcDbEntity
  8
1
  6
CONTINUOUS
 62
   253
100
AcDbLine
 10
8.7415
 20
-0.62375
 30
0.0
 11
9.36725
 21
-0.62375
 31
0.0
  0
LINE
  5
88
100
AcDbEntity
  8
1
  6
CONTINUOUS
 62
   253
100
AcDbLine
 10
8.743083
 20
-0.657083
 30
0.0
 11
9.36725
 21
-0.657083
 31
0.0
  0
LINE
  5
89
100
AcDbEntity
  8
1
  6
CONTINUOUS
 62
   253
100
AcDbLine
 10
8.74225
 20
-0.690417
 30
0.0
 11
9.36725
 21
-0.690417
 31
0.0
  0
LINE
  5
8A
100
AcDbEntity
  8
1
  6
CONTINUOUS
 62
   253
100
AcDbLine
 10
8.74225
 20
-0.72375
 30
0.0
 11
9.36725
 21
-0.72375
 31
0.0
  0
LINE
  5
8B
100
AcDbEntity
  8
1
  6
CONTINUOUS
 62
   253
100
AcDbLine
 10
8.782167
 20
-0.884417
 30
0.0
 11
9.323833
 21
-0.884417
 31
0.0
  0
LINE
  5
8C
100
AcDbEntity
  8
1
  6
CONTINUOUS
 62
   253
100
AcDbLine
 10
8.782167
 20
-0.91775
 30
0.0
 11
9.323833
 21
-0.91775
 31
0.0
  0
LINE
  5
8D
100
AcDbEntity
  8
1
  6
CONTINUOUS
 62
   253
100
AcDbLine
 10
8.782167
 20
-0.951083
 30
0.0
 11
9.323833
 21
-0.951083
 31
0.0
  0
LINE
  5
8E
100
AcDbEntity
  8
1
  6
CONTINUOUS
 62
   253
100
AcDbLine
 10
8.782167
 20
-0.984417
 30
0.0
 11
9.323833
 21
-0.984417
 31
0.0
  0
LINE
  5
8F
100
AcDbEntity
  8
1
  6
CONTINUOUS
 62
   253
100
AcDbLine
 10
8.789583
 20
0.325667
 30
0.0
 11
8.789583
 21
-0.207833
 31
0.0
  0
LINE
  5
90
100
AcDbEntity
  8
1
  6
CONTINUOUS
 62
   253
100
AcDbLine
 10
9.33125
 20
0.325667
 30
0.0
 11
9.33125
 21
-0.207833
 31
0.0
  0
LINE
  5
91
100
AcDbEntity
  8
1
  6
CONTINUOUS
 62
   253
100
AcDbLine
 10
9.08125
 20
0.292167
 30
0.0
 11
9.08125
 21
-0.207833
 31
0.0
  0
LINE
  5
92
100
AcDbEntity
  8
1
  6
CONTINUOUS
 62
   253
100
AcDbLine
 10
9.241583
 20
0.292167
 30
0.0
 11
9.241583
 21
-0.207833
 31
0.0
  0
LINE
  5
93
100
AcDbEntity
  8
1
  6
CONTINUOUS
 62
   253
100
AcDbLine
 10
8.825583
 20
-0.290417
 30
0.0
 11
8.825583
 21
-0.837
 31
0.0
  0
LINE
  5
94
100
AcDbEntity
  8
1
  6
CONTINUOUS
 62
   253
100
AcDbLine
 10
9.36725
 20
-0.256917
 30
0.0
 11
9.36725
 21
-0.837583
 31
0.0
  0
LINE
  5
95
100
AcDbEntity
  8
1
  6
CONTINUOUS
 62
   253
100
AcDbLine
 10
8.888083
 20
-0.290417
 30
0.0
 11
8.888083
 21
-0.836417
 31
0.0
  0
LINE
  5
96
100
AcDbEntity
  8
1
  6
CONTINUOUS
 62
   253
100
AcDbLine
 10
8.99225
 20
-0.290417
 30
0.0
 11
8.99225
 21
-0.836417
 31
0.0
  0
LINE
  5
97
100
AcDbEntity
  8
1
  6
CONTINUOUS
 62
   253
100
AcDbLine
 10
9.096417
 20
-0.290417
 30
0.0
 11
9.096417
 21
-0.836417
 31
0.0
  0
LINE
  5
98
100
AcDbEntity
  8
1
  6
CONTINUOUS
 62
   253
100
AcDbLine
 10
9.200583
 20
-0.290417
 30
0.0
 11
9.200583
 21
-0.837
 31
0.0
  0
LINE
  5
99
100
AcDbEntity
  8
1
  6
CONTINUOUS
 62
   253
100
AcDbLine
 10
9.30475
 20
-0.290417
 30
0.0
 11
9.30475
 21
-0.837583
 31
0.0
  0
LINE
  5
9A
100
AcDbEntity
  8
1
  6
CONTINUOUS
 62
   253
100
AcDbLine
 10
8.782167
 20
-0.850917
 30
0.0
 11
8.782167
 21
-1.01775
 31
0.0
  0
LINE
  5
9B
100
AcDbEntity
  8
1
  6
CONTINUOUS
 62
   253
100
AcDbLine
 10
9.323833
 20
-0.850917
 30
0.0
 11
9.323833
 21
-1.01775
 31
0.0
  0
LINE
  5
9C
100
AcDbEntity
  8
1
  6
CONTINUOUS
 62
   253
100
AcDbLine
 10
8.8655
 20
-0.884417
 30
0.0
 11
8.8655
 21
-1.01775
 31
0.0
  0
LINE
  5
9D
100
AcDbEntity
  8
1
  6
CONTINUOUS
 62
   253
100
AcDbLine
 10
9.1155
 20
-0.884417
 30
0.0
 11
9.1155
 21
-1.01775
 31
0.0
  0
LINE
  5
9E
100
AcDbEntity
  8
1
  6
CONTINUOUS
 62
   253
100
AcDbLine
 10
9.198833
 20
-0.884417
 30
0.0
 11
9.198833
 21
-1.01775
 31
0.0
  0
LINE
  5
9F
100
AcDbEntity
  8
1
  6
CONTINUOUS
 62
   253
100
AcDbLine
 10
6.635583
 20
-0.80625
 30
0.0
 11
6.635583
 21
-0.722917
 31
0.0
  0
LINE
  5
A0
100
AcDbEntity
  8
1
  6
CONTINUOUS
 62
   253
100
AcDbLine
 10
6.635583
 20
-0.722917
 30
0.0
 11
6.718917
 21
-0.722917
 31
0.0
  0
LINE
  5
A1
100
AcDbEntity
  8
1
  6
CONTINUOUS
 62
   253
100
AcDbLine
 10
6.718917
 20
-0.722917
 30
0.0
 11
6.718917
 21
-0.389583
 31
0.0
  0
LINE
  5
A2
100
AcDbEntity
  8
1
  6
CONTINUOUS
 62
   253
100
AcDbLine
 10
7.30225
 20
-0.389583
 30
0.0
 11
7.30225
 21
-0.722917
 31
0.0
  0
LINE
  5
A3
100
AcDbEntity
  8
1
  6
CONTINUOUS
 62
   253
100
AcDbLine
 10
7.30225
 20
-0.722917
 30
0.0
 11
7.385583
 21
-0.722917
 31
0.0
  0
LINE
  5
A4
100
AcDbEntity
  8
1
  6
CONTINUOUS
 62
   253
100
AcDbLine
 10
7.385583
 20
-0.722917
 30
0.0
 11
7.385583
 21
-0.80625
 31
0.0
  0
LINE
  5
A5
100
AcDbEntity
  8
1
  6
CONTINUOUS
 62
   253
100
AcDbLine
 10
7.710083
 20
-0.806167
 30
0.0
 11
7.710083
 21
-0.722833
 31
0.0
  0
LINE
  5
A6
100
AcDbEntity
  8
1
  6
CONTINUOUS
 62
   253
100
AcDbLine
 10
8.043417
 20
-0.806167
 30
0.0
 11
7.710083
 21
-0.806167
 31
0.0
  0
LINE
  5
A7
100
AcDbEntity
  8
1
  6
CONTINUOUS
 62
   253
100
AcDbLine
 10
8.043417
 20
-0.722833
 30
0.0
 11
8.043417
 21
-0.806167
 31
0.0
  0
POLYLINE
  5
A8
100
AcDbEntity
  8
1
  6
CONTINUOUS
 62
   200
100
AcDb2dPolyline
 66
     1
 10
0.0
 20
0.0
 30
0.0
  0
VERTEX
  5
A9
100
AcDbEntity
  8
1
  6
CONTINUOUS
 62
   200
100
AcDbVertex
100
AcDb2dVertex
 10
6.744333
 20
-0.407
 30
0.0
  0
VERTEX
  5
AA
100
AcDbEntity
  8
1
  6
CONTINUOUS
 62
   200
100
AcDbVertex
100
AcDb2dVertex
 10
6.744333
 20
-0.450333
 30
0.0
  0
VERTEX
  5
AB
100
AcDbEntity
  8
1
  6
CONTINUOUS
 62
   200
100
AcDbVertex
100
AcDb2dVertex
 10
6.738417
 20
-0.45625
 30
0.0
  0
VERTEX
  5
AC
100
AcDbEntity
  8
1
  6
CONTINUOUS
 62
   200
100
AcDbVertex
100
AcDb2dVertex
 10
6.738417
 20
-0.664583
 30
0.0
  0
VERTEX
  5
AD
100
AcDbEntity
  8
1
  6
CONTINUOUS
 62
   200
100
AcDbVertex
100
AcDb2dVertex
 10
6.744333
 20
-0.6705
 30
0.0
  0
VERTEX
  5
AE
100
AcDbEntity
  8
1
  6
CONTINUOUS
 62
   200
100
AcDbVertex
100
AcDb2dVertex
 10
6.744333
 20
-0.71675
 30
0.0
  0
SEQEND
  5
AF
100
AcDbEntity
  8
1
  6
CONTINUOUS
 62
   200
  0
LINE
  5
B0
100
AcDbEntity
  8
1
  6
CONTINUOUS
 62
   200
100
AcDbLine
 10
6.819083
 20
-0.667833
 30
0.0
 11
6.819083
 21
-0.780833
 31
0.0
  0
INSERT
  5
FC
100
AcDbEntity
  8
1
  6
CONTINUOUS
 62
   200
100
AcDbBlockReference
  2
REBAR
 10
6.739917
 20
0.073583
 30
0.0
 41
0.800003
 42
0.800003
210
0.0
220
0.0
230
1.0
  0
INSERT
  5
FD
100
AcDbEntity
  8
1
  6
CONTINUOUS
 62
   230
100
AcDbBlockReference
  2
REBAR
 10
7.82275
 20
-0.412333
 30
0.0
 41
0.800003
 42
0.800003
210
0.0
220
0.0
230
1.0
  0
INSERT
  5
FE
100
AcDbEntity
  8
1
  6
CONTINUOUS
 62
   230
100
AcDbBlockReference
  2
REBAR
 10
7.876917
 20
-0.411917
 30
0.0
 41
0.800003
 42
0.800003
210
0.0
220
0.0
230
1.0
  0
INSERT
  5
FF
100
AcDbEntity
  8
1
  6
CONTINUOUS
 62
   230
100
AcDbBlockReference
  2
REBAR
 10
7.930667
 20
-0.412083
 30
0.0
 41
0.800003
 42
0.800003
210
0.0
220
0.0
230
1.0
  0
INSERT
  5
100
100
AcDbEntity
  8
1
  6
CONTINUOUS
 62
   230
100
AcDbBlockReference
  2
REBAR
 10
7.817667
 20
-0.467167
 30
0.0
 41
0.800003
 42
0.800003
210
0.0
220
0.0
230
1.0
  0
INSERT
  5
101
100
AcDbEntity
  8
1
  6
CONTINUOUS
 62
   230
100
AcDbBlockReference
  2
REBAR
 10
7.934917
 20
-0.466083
 30
0.0
 41
0.800003
 42
0.800003
210
0.0
220
0.0
230
1.0
  0
INSERT
  5
102
100
AcDbEntity
  8
1
  6
CONTINUOUS
 62
   230
100
AcDbBlockReference
  2
REBAR
 10
7.816417
 20
-0.52225
 30
0.0
 41
0.800003
 42
0.800003
210
0.0
220
0.0
230
1.0
  0
INSERT
  5
103
100
AcDbEntity
  8
1
  6
CONTINUOUS
 62
   230
100
AcDbBlockReference
  2
REBAR
 10
7.936667
 20
-0.5195
 30
0.0
 41
0.800003
 42
0.800003
210
0.0
220
0.0
230
1.0
  0
INSERT
  5
104
100
AcDbEntity
  8
1
  6
CONTINUOUS
 62
   230
100
AcDbBlockReference
  2
REBAR
 10
7.819917
 20
-0.646417
 30
0.0
 41
0.800003
 42
0.800003
210
0.0
220
0.0
230
1.0
  0
INSERT
  5
105
100
AcDbEntity
  8
1
  6
CONTINUOUS
 62
   230
100
AcDbBlockReference
  2
REBAR
 10
7.818167
 20
-0.587167
 30
0.0
 41
0.800003
 42
0.800003
210
0.0
220
0.0
230
1.0
  0
INSERT
  5
106
100
AcDbEntity
  8
1
  6
CONTINUOUS
 62
   230
100
AcDbBlockReference
  2
REBAR
 10
7.93425
 20
-0.587667
 30
0.0
 41
0.800003
 42
0.800003
210
0.0
220
0.0
230
1.0
  0
INSERT
  5
107
100
AcDbEntity
  8
1
  6
CONTINUOUS
 62
   230
100
AcDbBlockReference
  2
REBAR
 10
7.824167
 20
-0.706
 30
0.0
 41
0.800003
 42
0.800003
210
0.0
220
0.0
230
1.0
  0
POLYLINE
  5
108
100
AcDbEntity
  8
1
  6
CONTINUOUS
 62
   200
100
AcDb2dPolyline
 66
     1
 10
0.0
 20
0.0
 30
0.0
  0
VERTEX
  5
109
100
AcDbEntity
  8
1
  6
CONTINUOUS
 62
   200
100
AcDbVertex
100
AcDb2dVertex
 10
7.749
 20
-0.78825
 30
0.0
  0
VERTEX
  5
10A
100
AcDbEntity
  8
1
  6
CONTINUOUS
 62
   200
100
AcDbVertex
100
AcDb2dVertex
 10
7.8115
 20
-0.78825
 30
0.0
  0
VERTEX
  5
10B
100
AcDbEntity
  8
1
  6
CONTINUOUS
 62
   200
100
AcDbVertex
100
AcDb2dVertex
 10
7.8115
 20
-0.676083
 30
0.0
  0
SEQEND
  5
10C
100
AcDbEntity
  8
1
  6
CONTINUOUS
 62
   200
  0
POLYLINE
  5
10D
100
AcDbEntity
  8
1
  6
CONTINUOUS
 62
   200
100
AcDb2dPolyline
 66
     1
 10
0.0
 20
0.0
 30
0.0
  0
VERTEX
  5
10E
100
AcDbEntity
  8
1
  6
CONTINUOUS
 62
   200
100
AcDbVertex
100
AcDb2dVertex
 10
7.943833
 20
-0.677083
 30
0.0
  0
VERTEX
  5
10F
100
AcDbEntity
  8
1
  6
CONTINUOUS
 62
   200
100
AcDbVertex
100
AcDb2dVertex
 10
7.943833
 20
-0.790083
 30
0.0
  0
VERTEX
  5
110
100
AcDbEntity
  8
1
  6
CONTINUOUS
 62
   200
100
AcDbVertex
100
AcDb2dVertex
 10
8.006333
 20
-0.790083
 30
0.0
  0
SEQEND
  5
111
100
AcDbEntity
  8
1
  6
CONTINUOUS
 62
   200
  0
LINE
  5
112
100
AcDbEntity
  8
1
  6
CONTINUOUS
 62
   253
100
AcDbLine
 10
6.718917
 20
0.212083
 30
0.0
 11
7.30225
 21
0.212083
 31
0.0
  0
LINE
  5
113
100
AcDbEntity
  8
1
  6
CONTINUOUS
 62
   253
100
AcDbLine
 10
7.710083
 20
-0.722833
 30
0.0
 11
7.793417
 21
-0.722833
 31
0.0
  0
LINE
  5
114
100
AcDbEntity
  8
1
  6
CONTINUOUS
 62
   253
100
AcDbLine
 10
7.793417
 20
-0.722833
 30
0.0
 11
7.793417
 21
-0.3895
 31
0.0
  0
LINE
  5
115
100
AcDbEntity
  8
1
  6
CONTINUOUS
 62
   253
100
AcDbLine
 10
7.793417
 20
-0.3895
 30
0.0
 11
7.960083
 21
-0.3895
 31
0.0
  0
LINE
  5
116
100
AcDbEntity
  8
1
  6
CONTINUOUS
 62
   253
100
AcDbLine
 10
7.960083
 20
-0.3895
 30
0.0
 11
7.960083
 21
-0.722833
 31
0.0
  0
LINE
  5
117
100
AcDbEntity
  8
1
  6
CONTINUOUS
 62
   253
100
AcDbLine
 10
7.960083
 20
-0.722833
 30
0.0
 11
8.043417
 21
-0.722833
 31
0.0
  0
INSERT
  5
118
100
AcDbEntity
  8
1
  6
CONTINUOUS
 62
   230
100
AcDbBlockReference
  2
REBAR
 10
7.935
 20
-0.646083
 30
0.0
 41
0.800003
 42
0.800003
210
0.0
220
0.0
230
1.0
  0
INSERT
  5
119
100
AcDbEntity
  8
1
  6
CONTINUOUS
 62
   230
100
AcDbBlockReference
  2
REBAR
 10
7.929583
 20
-0.704583
 30
0.0
 41
0.800003
 42
0.800003
210
0.0
220
0.0
230
1.0
  0
LINE
  5
11A
100
AcDbEntity
  8
1
  6
CONTINUOUS
 62
   253
100
AcDbLine
 10
7.793417
 20
-0.722833
 30
0.0
 11
7.855917
 21
-0.722833
 31
0.0
  0
LINE
  5
11B
100
AcDbEntity
  8
1
  6
CONTINUOUS
 62
   253
100
AcDbLine
 10
7.855917
 20
-0.722833
 30
0.0
 11
7.855917
 21
-0.702
 31
0.0
  0
LINE
  5
11C
100
AcDbEntity
  8
1
  6
CONTINUOUS
 62
   253
100
AcDbLine
 10
7.855917
 20
-0.702
 30
0.0
 11
7.897583
 21
-0.702
 31
0.0
  0
LINE
  5
11D
100
AcDbEntity
  8
1
  6
CONTINUOUS
 62
   253
100
AcDbLine
 10
7.897583
 20
-0.702
 30
0.0
 11
7.897583
 21
-0.722833
 31
0.0
  0
LINE
  5
11E
100
AcDbEntity
  8
1
  6
CONTINUOUS
 62
   253
100
AcDbLine
 10
7.897583
 20
-0.722833
 30
0.0
 11
7.960083
 21
-0.722833
 31
0.0
  0
INSERT
  5
11F
100
AcDbEntity
  8
1
  6
CONTINUOUS
 62
   200
100
AcDbBlockReference
  2
REBAR
 10
6.74
 20
0.137417
 30
0.0
 41
0.800003
 42
0.800003
210
0.0
220
0.0
230
1.0
  0
INSERT
  5
120
100
AcDbEntity
  8
1
  6
CONTINUOUS
 62
   200
100
AcDbBlockReference
  2
REBAR
 10
6.740167
 20
0.186667
 30
0.0
 41
0.800003
 42
0.800003
210
0.0
220
0.0
230
1.0
  0
INSERT
  5
121
100
AcDbEntity
  8
1
  6
CONTINUOUS
 62
   200
100
AcDbBlockReference
  2
REBAR
 10
6.795417
 20
0.069417
 30
0.0
 41
0.800003
 42
0.800003
210
0.0
220
0.0
230
1.0
  0
INSERT
  5
122
100
AcDbEntity
  8
1
  6
CONTINUOUS
 62
   200
100
AcDbBlockReference
  2
REBAR
 10
6.795167
 20
0.189333
 30
0.0
 41
0.800003
 42
0.800003
210
0.0
220
0.0
230
1.0
  0
POINT
  5
123
100
AcDbEntity
  8
1
  6
CONTINUOUS
 62
   253
100
AcDbPoint
 10
8.699917
 20
0.387083
 30
0.0
  0
POINT
  5
124
100
AcDbEntity
  8
1
  6
CONTINUOUS
 62
   253
100
AcDbPoint
 10
6.739333
 20
-0.426583
 30
0.0
  0
POINT
  5
125
100
AcDbEntity
  8
1
  6
CONTINUOUS
 62
   253
100
AcDbPoint
 10
7.368167
 20
-0.788917
 30
0.0
  0
POLYLINE
  5
126
100
AcDbEntity
  8
1
  6
CONTINUOUS
 62
   200
100
AcDb2dPolyline
 66
     1
 10
0.0
 20
0.0
 30
0.0
  0
VERTEX
  5
127
100
AcDbEntity
  8
1
  6
CONTINUOUS
 62
   200
100
AcDbVertex
100
AcDb2dVertex
 10
6.825583
 20
-0.407
 30
0.0
  0
VERTEX
  5
128
100
AcDbEntity
  8
1
  6
CONTINUOUS
 62
   200
100
AcDbVertex
100
AcDb2dVertex
 10
6.825583
 20
-0.450333
 30
0.0
  0
VERTEX
  5
129
100
AcDbEntity
  8
1
  6
CONTINUOUS
 62
   200
100
AcDbVertex
100
AcDb2dVertex
 10
6.819667
 20
-0.45625
 30
0.0
  0
VERTEX
  5
12A
100
AcDbEntity
  8
1
  6
CONTINUOUS
 62
   200
100
AcDbVertex
100
AcDb2dVertex
 10
6.819667
 20
-0.664583
 30
0.0
  0
VERTEX
  5
12B
100
AcDbEntity
  8
1
  6
CONTINUOUS
 62
   200
100
AcDbVertex
100
AcDb2dVertex
 10
6.825583
 20
-0.6705
 30
0.0
  0
VERTEX
  5
12C
100
AcDbEntity
  8
1
  6
CONTINUOUS
 62
   200
100
AcDbVertex
100
AcDb2dVertex
 10
6.825583
 20
-0.71675
 30
0.0
  0
SEQEND
  5
12D
100
AcDbEntity
  8
1
  6
CONTINUOUS
 62
   200
  0
POLYLINE
  5
12E
100
AcDbEntity
  8
1
  6
CONTINUOUS
 62
     1
100
AcDb2dPolyline
 66
     1
 10
0.0
 20
0.0
 30
0.0
  0
VERTEX
  5
12F
100
AcDbEntity
  8
1
  6
CONTINUOUS
 62
     1
100
AcDbVertex
100
AcDb2dVertex
 10
7.812417
 20
-0.4595
 30
0.0
  0
VERTEX
  5
130
100
AcDbEntity
  8
1
  6
CONTINUOUS
 62
     1
100
AcDbVertex
100
AcDb2dVertex
 10
7.812417
 20
-0.40725
 30
0.0
  0
VERTEX
  5
131
100
AcDbEntity
  8
1
  6
CONTINUOUS
 62
     1
100
AcDbVertex
100
AcDb2dVertex
 10
7.942083
 20
-0.40725
 30
0.0
  0
VERTEX
  5
132
100
AcDbEntity
  8
1
  6
CONTINUOUS
 62
     1
100
AcDbVertex
100
AcDb2dVertex
 10
7.942083
 20
-0.459833
 30
0.0
  0
SEQEND
  5
133
100
AcDbEntity
  8
1
  6
CONTINUOUS
 62
     1
  0
POLYLINE
  5
134
100
AcDbEntity
  8
1
  6
CONTINUOUS
 62
   200
100
AcDb2dPolyline
 66
     1
 10
0.0
 20
0.0
 30
0.0
  0
VERTEX
  5
135
100
AcDbEntity
  8
1
  6
CONTINUOUS
 62
   200
100
AcDbVertex
100
AcDb2dVertex
 10
7.818583
 20
-0.410167
 30
0.0
  0
VERTEX
  5
136
100
AcDbEntity
  8
1
  6
CONTINUOUS
 62
   200
100
AcDbVertex
100
AcDb2dVertex
 10
7.818583
 20
-0.458833
 30
0.0
  0
VERTEX
  5
137
100
AcDbEntity
  8
1
  6
CONTINUOUS
 62
   200
100
AcDbVertex
100
AcDb2dVertex
 10
7.812667
 20
-0.46475
 30
0.0
  0
VERTEX
  5
138
100
AcDbEntity
  8
1
  6
CONTINUOUS
 62
   200
100
AcDbVertex
100
AcDb2dVertex
 10
7.812667
 20
-0.673083
 30
0.0
  0
VERTEX
  5
139
100
AcDbEntity
  8
1
  6
CONTINUOUS
 62
   200
100
AcDbVertex
100
AcDb2dVertex
 10
7.818583
 20
-0.679
 30
0.0
  0
VERTEX
  5
13A
100
AcDbEntity
  8
1
  6
CONTINUOUS
 62
   200
100
AcDbVertex
100
AcDb2dVertex
 10
7.818583
 20
-0.711417
 30
0.0
  0
SEQEND
  5
13B
100
AcDbEntity
  8
1
  6
CONTINUOUS
 62
   200
  0
POLYLINE
  5
13C
100
AcDbEntity
  8
1
  6
CONTINUOUS
 62
   200
100
AcDb2dPolyline
 66
     1
 10
0.0
 20
0.0
 30
0.0
  0
VERTEX
  5
13D
100
AcDbEntity
  8
1
  6
CONTINUOUS
 62
   200
100
AcDbVertex
100
AcDb2dVertex
 10
7.9365
 20
-0.708167
 30
0.0
  0
VERTEX
  5
13E
100
AcDbEntity
  8
1
  6
CONTINUOUS
 62
   200
100
AcDbVertex
100
AcDb2dVertex
 10
7.9365
 20
-0.679083
 30
0.0
  0
VERTEX
  5
13F
100
AcDbEntity
  8
1
  6
CONTINUOUS
 62
   200
100
AcDbVertex
100
AcDb2dVertex
 10
7.942417
 20
-0.673167
 30
0.0
  0
VERTEX
  5
140
100
AcDbEntity
  8
1
  6
CONTINUOUS
 62
   200
100
AcDbVertex
100
AcDb2dVertex
 10
7.942417
 20
-0.464833
 30
0.0
  0
VERTEX
  5
141
100
AcDbEntity
  8
1
  6
CONTINUOUS
 62
   200
100
AcDbVertex
100
AcDb2dVertex
 10
7.9365
 20
-0.458917
 30
0.0
  0
VERTEX
  5
142
100
AcDbEntity
  8
1
  6
CONTINUOUS
 62
   200
100
AcDbVertex
100
AcDb2dVertex
 10
7.9365
 20
-0.410333
 30
0.0
  0
SEQEND
  5
143
100
AcDbEntity
  8
1
  6
CONTINUOUS
 62
   200
  0
TEXT
  5
144
100
AcDbEntity
  8
1
  6
CONTINUOUS
 62
   110
100
AcDbText
 10
7.857333
 20
-0.321167
 30
0.0
 40
0.008333
  1
3'-0"
  7
TXT
210
0.0
220
0.0
230
1.0
100
AcDbText
  0
LINE
  5
145
100
AcDbEntity
  8
1
  6
CONTINUOUS
 62
   131
100
AcDbLine
 10
7.709583
 20
-0.957667
 30
0.0
 11
8.042917
 21
-0.957667
 31
0.0
  0
LINE
  5
146
100
AcDbEntity
  8
1
  6
CONTINUOUS
 62
   131
100
AcDbLine
 10
7.810917
 20
-0.364167
 30
0.0
 11
7.941833
 21
-0.364167
 31
0.0
  0
TEXT
  5
147
100
AcDbEntity
  8
1
  6
CONTINUOUS
 62
   110
100
AcDbText
 10
7.847333
 20
-0.360333
 30
0.0
 40
0.008333
  1
2 SPA. @ 
  7
TXT
210
0.0
220
0.0
230
1.0
100
AcDbText
  0
TEXT
  5
148
100
AcDbEntity
  8
1
  6
CONTINUOUS
 62
   110
100
AcDbText
 10
7.858417
 20
-0.37525
 30
0.0
 40
0.008333
  1
1'-3"
  7
TXT
210
0.0
220
0.0
230
1.0
100
AcDbText
  0
TEXT
  5
149
100
AcDbEntity
  8
1
  6
CONTINUOUS
 62
   110
100
AcDbText
 10
7.86375
 20
-0.521
 30
0.0
 40
0.008333
  1
P501
  7
TXT
210
0.0
220
0.0
230
1.0
100
AcDbText
  0
TEXT
  5
14A
100
AcDbEntity
  8
1
  6
CONTINUOUS
 62
   110
100
AcDbText
 10
7.862
 20
-0.563583
 30
0.0
 40
0.008333
  1
P502
  7
TXT
210
0.0
220
0.0
230
1.0
100
AcDbText
  0
POLYLINE
  5
14B
100
AcDbEntity
  8
1
  6
CONTINUOUS
 62
   151
100
AcDb2dPolyline
 66
     1
 10
0.0
 20
0.0
 30
0.0
  0
VERTEX
  5
14C
100
AcDbEntity
  8
1
  6
CONTINUOUS
 62
   151
100
AcDbVertex
100
AcDb2dVertex
 10
6.789917
 20
0.06425
 30
0.0
  0
VERTEX
  5
14D
100
AcDbEntity
  8
1
  6
CONTINUOUS
 62
   151
100
AcDbVertex
100
AcDb2dVertex
 10
6.737667
 20
0.06425
 30
0.0
  0
VERTEX
  5
14E
100
AcDbEntity
  8
1
  6
CONTINUOUS
 62
   151
100
AcDbVertex
100
AcDb2dVertex
 10
6.737667
 20
0.193917
 30
0.0
  0
VERTEX
  5
14F
100
AcDbEntity
  8
1
  6
CONTINUOUS
 62
   151
100
AcDbVertex
100
AcDb2dVertex
 10
6.79025
 20
0.193917
 30
0.0
  0
SEQEND
  5
150
100
AcDbEntity
  8
1
  6
CONTINUOUS
 62
   151
  0
LINE
  5
151
100
AcDbEntity
  8
1
  6
CONTINUOUS
 62
   253
100
AcDbLine
 10
7.30225
 20
0.212083
 30
0.0
 11
7.30225
 21
0.045417
 31
0.0
  0
LINE
  5
152
100
AcDbEntity
  8
1
  6
CONTINUOUS
 62
   253
100
AcDbLine
 10
7.30225
 20
0.045417
 30
0.0
 11
6.718917
 21
0.045417
 31
0.0
  0
LINE
  5
153
100
AcDbEntity
  8
1
  6
CONTINUOUS
 62
   253
100
AcDbLine
 10
6.718917
 20
0.045417
 30
0.0
 11
6.718917
 21
0.212083
 31
0.0
  0
LINE
  5
154
100
AcDbEntity
  8
1
  6
CONTINUOUS
 62
     1
100
AcDbLine
 10
6.74575
 20
0.195
 30
0.0
 11
6.74575
 21
0.062167
 31
0.0
  0
LINE
  5
155
100
AcDbEntity
  8
1
  6
CONTINUOUS
 62
     1
100
AcDbLine
 10
6.8025
 20
0.195
 30
0.0
 11
6.8025
 21
0.063667
 31
0.0
  0
LINE
  5
156
100
AcDbEntity
  8
1
  6
CONTINUOUS
 62
     1
100
AcDbLine
 10
7.219167
 20
0.195667
 30
0.0
 11
7.219167
 21
0.064333
 31
0.0
  0
LINE
  5
157
100
AcDbEntity
  8
1
  6
CONTINUOUS
 62
   131
100
AcDbLine
 10
7.329833
 20
0.193583
 30
0.0
 11
7.329833
 21
0.064
 31
0.0
  0
TEXT
  5
158
100
AcDbEntity
  8
1
  6
CONTINUOUS
 62
   110
100
AcDbText
 10
6.913
 20
0.259667
 30
0.0
 40
0.008333
  1
BARS SPA. @ 1'-0" C/C
  7
TXT
210
0.0
220
0.0
230
1.0
100
AcDbText
  0
TEXT
  5
159
100
AcDbEntity
  8
1
  6
CONTINUOUS
 62
   110
100
AcDbText
 10
7.368417
 20
0.11625
 30
0.0
 40
0.008333
  1
3'-0"
 50
90.0
  7
TXT
210
0.0
220
0.0
230
1.0
100
AcDbText
  0
TEXT
  5
15A
100
AcDbEntity
  8
1
  6
CONTINUOUS
 62
   110
100
AcDbText
 10
7.324833
 20
0.103
 30
0.0
 40
0.008333
  1
2 SPA. @ 
 50
90.0
  7
TXT
210
0.0
220
0.0
230
1.0
100
AcDbText
  0
TEXT
  5
15B
100
AcDbEntity
  8
1
  6
CONTINUOUS
 62
   110
100
AcDbText
 10
7.34375
 20
0.116333
 30
0.0
 40
0.008333
  1
1'-3"
 50
90.0
  7
TXT
210
0.0
220
0.0
230
1.0
100
AcDbText
  0
TEXT
  5
15C
100
AcDbEntity
  8
1
  6
CONTINUOUS
 62
   110
100
AcDbText
 10
6.753417
 20
0.102167
 30
0.0
 40
0.008333
  1
P501
  7
TXT
210
0.0
220
0.0
230
1.0
100
AcDbText
  0
TEXT
  5
15D
100
AcDbEntity
  8
1
  6
CONTINUOUS
 62
   110
100
AcDbText
 10
6.9855
 20
0.137667
 30
0.0
 40
0.008333
  1
P502
  7
TXT
210
0.0
220
0.0
230
1.0
100
AcDbText
  0
TEXT
  5
15E
100
AcDbEntity
  8
1
  6
CONTINUOUS
 62
    91
100
AcDbText
 10
8.924417
 20
0.301083
 30
0.0
 40
0.016666
  1
CONTROL DIMENSIONS
  7
TXT
210
0.0
220
0.0
230
1.0
100
AcDbText
  0
TEXT
  5
15F
100
AcDbEntity
  8
1
  6
CONTINUOUS
 62
   211
100
AcDbText
 10
8.803167
 20
0.264083
 30
0.0
 40
0.0125
  1
CODE
  7
TXT
210
0.0
220
0.0
230
1.0
100
AcDbText
  0
TEXT
  5
160
100
AcDbEntity
  8
1
  6
CONTINUOUS
 62
   211
100
AcDbText
 10
8.907333
 20
0.264833
 30
0.0
 40
0.0125
  1
DESCRIPTION 
  7
TXT
210
0.0
220
0.0
230
1.0
100
AcDbText
  0
TEXT
  5
161
100
AcDbEntity
  8
1
  6
CONTINUOUS
 62
   211
100
AcDbText
 10
9.121417
 20
0.265
 30
0.0
 40
0.0125
  1
FORMULA
  7
TXT
210
0.0
220
0.0
230
1.0
100
AcDbText
  0
TEXT
  5
162
100
AcDbEntity
  8
1
  6
CONTINUOUS
 62
   211
100
AcDbText
 10
9.255917
 20
0.266083
 30
0.0
 40
0.0125
  1
VALUE
  7
TXT
210
0.0
220
0.0
230
1.0
100
AcDbText
  0
TEXT
  5
163
100
AcDbEntity
  8
1
  6
CONTINUOUS
 62
    91
100
AcDbText
 10
6.90875
 20
-0.057167
 30
0.0
 40
0.020833
  1
STEM PLAN VIEW
  7
TXT
210
0.0
220
0.0
230
1.0
100
AcDbText
  0
TEXT
  5
164
100
AcDbEntity
  8
1
  6
CONTINUOUS
 62
    91
100
AcDbText
 10
6.891917
 20
-1.150667
 30
0.0
 40
0.020833
  1
ELEVATION VIEW
  7
TXT
210
0.0
220
0.0
230
1.0
100
AcDbText
  0
LINE
  5
165
100
AcDbEntity
  8
1
  6
CONTINUOUS
 62
   253
100
AcDbLine
 10
6.718917
 20
-0.389583
 30
0.0
 11
6.996917
 21
-0.389583
 31
0.0
  0
LINE
  5
166
100
AcDbEntity
  8
1
  6
CONTINUOUS
 62
   253
100
AcDbLine
 10
6.962167
 20
-0.389583
 30
0.0
 11
7.30225
 21
-0.389583
 31
0.0
  0
LINE
  5
167
100
AcDbEntity
  8
1
  6
CONTINUOUS
 62
   230
100
AcDbLine
 10
6.736667
 20
-0.407333
 30
0.0
 11
6.962167
 21
-0.407333
 31
0.0
  0
LINE
  5
168
100
AcDbEntity
  8
1
  6
CONTINUOUS
 62
   230
100
AcDbLine
 10
6.962167
 20
-0.407333
 30
0.0
 11
7.290333
 21
-0.407333
 31
0.0
  0
LINE
  5
169
100
AcDbEntity
  8
1
  6
CONTINUOUS
 62
   230
100
AcDbLine
 10
6.962
 20
-0.490667
 30
0.0
 11
7.29025
 21
-0.490667
 31
0.0
  0
LINE
  5
16A
100
AcDbEntity
  8
1
  6
CONTINUOUS
 62
   230
100
AcDbLine
 10
6.737
 20
-0.626833
 30
0.0
 11
6.962167
 21
-0.626833
 31
0.0
  0
LINE
  5
16B
100
AcDbEntity
  8
1
  6
CONTINUOUS
 62
   230
100
AcDbLine
 10
6.962167
 20
-0.626833
 30
0.0
 11
7.287917
 21
-0.626833
 31
0.0
  0
LINE
  5
16C
100
AcDbEntity
  8
1
  6
CONTINUOUS
 62
   230
100
AcDbLine
 10
6.736583
 20
-0.704167
 30
0.0
 11
6.962167
 21
-0.704167
 31
0.0
  0
LINE
  5
16D
100
AcDbEntity
  8
1
  6
CONTINUOUS
 62
   230
100
AcDbLine
 10
6.962167
 20
-0.704167
 30
0.0
 11
7.2875
 21
-0.704167
 31
0.0
  0
LINE
  5
16E
100
AcDbEntity
  8
1
  6
CONTINUOUS
 62
   253
100
AcDbLine
 10
6.718917
 20
-0.722917
 30
0.0
 11
6.962083
 21
-0.722917
 31
0.0
  0
LINE
  5
16F
100
AcDbEntity
  8
1
  6
CONTINUOUS
 62
   253
100
AcDbLine
 10
6.962083
 20
-0.722917
 30
0.0
 11
7.30225
 21
-0.722917
 31
0.0
  0
POLYLINE
  5
170
100
AcDbEntity
  8
1
  6
CONTINUOUS
 62
   230
100
AcDb2dPolyline
 66
     1
 10
0.0
 20
0.0
 30
0.0
  0
VERTEX
  5
171
100
AcDbEntity
  8
1
  6
CONTINUOUS
 62
   230
100
AcDbVertex
100
AcDb2dVertex
 10
6.962083
 20
-0.741333
 30
0.0
  0
VERTEX
  5
172
100
AcDbEntity
  8
1
  6
CONTINUOUS
 62
   230
100
AcDbVertex
100
AcDb2dVertex
 10
7.024417
 20
-0.741333
 30
0.0
  0
VERTEX
  5
173
100
AcDbEntity
  8
1
  6
CONTINUOUS
 62
   230
100
AcDbVertex
100
AcDb2dVertex
 10
7.031667
 20
-0.7455
 30
0.0
  0
VERTEX
  5
174
100
AcDbEntity
  8
1
  6
CONTINUOUS
 62
   230
100
AcDbVertex
100
AcDb2dVertex
 10
7.367083
 20
-0.7455
 30
0.0
  0
SEQEND
  5
175
100
AcDbEntity
  8
1
  6
CONTINUOUS
 62
   230
  0
LINE
  5
176
100
AcDbEntity
  8
1
  6
CONTINUOUS
 62
   230
100
AcDbLine
 10
6.654
 20
-0.745833
 30
0.0
 11
6.962083
 21
-0.745833
 31
0.0
  0
LINE
  5
177
100
AcDbEntity
  8
1
  6
CONTINUOUS
 62
   230
100
AcDbLine
 10
6.962083
 20
-0.745833
 30
0.0
 11
7.023833
 21
-0.745833
 31
0.0
  0
POLYLINE
  5
178
100
AcDbEntity
  8
1
  6
CONTINUOUS
 62
   230
100
AcDb2dPolyline
 66
     1
 10
0.0
 20
0.0
 30
0.0
  0
VERTEX
  5
179
100
AcDbEntity
  8
1
  6
CONTINUOUS
 62
   230
100
AcDbVertex
100
AcDb2dVertex
 10
6.962167
 20
-0.779083
 30
0.0
  0
VERTEX
  5
17A
100
AcDbEntity
  8
1
  6
CONTINUOUS
 62
   230
100
AcDbVertex
100
AcDb2dVertex
 10
7.02375
 20
-0.779083
 30
0.0
  0
VERTEX
  5
17B
100
AcDbEntity
  8
1
  6
CONTINUOUS
 62
   230
100
AcDbVertex
100
AcDb2dVertex
 10
7.031
 20
-0.78325
 30
0.0
  0
VERTEX
  5
17C
100
AcDbEntity
  8
1
  6
CONTINUOUS
 62
   230
100
AcDbVertex
100
AcDb2dVertex
 10
7.367917
 20
-0.78325
 30
0.0
  0
SEQEND
  5
17D
100
AcDbEntity
  8
1
  6
CONTINUOUS
 62
   230
  0
LINE
  5
17E
100
AcDbEntity
  8
1
  6
CONTINUOUS
 62
   230
100
AcDbLine
 10
6.653167
 20
-0.78325
 30
0.0
 11
6.962167
 21
-0.78325
 31
0.0
  0
LINE
  5
17F
100
AcDbEntity
  8
1
  6
CONTINUOUS
 62
   230
100
AcDbLine
 10
6.962167
 20
-0.78325
 30
0.0
 11
7.024083
 21
-0.78325
 31
0.0
  0
LINE
  5
180
100
AcDbEntity
  8
1
  6
CONTINUOUS
 62
   253
100
AcDbLine
 10
7.385583
 20
-0.80625
 30
0.0
 11
6.635583
 21
-0.80625
 31
0.0
  0
TEXT
  5
181
100
AcDbEntity
  8
1
  6
CONTINUOUS
 62
   110
100
AcDbText
 10
6.944833
 20
-1.00825
 30
0.0
 40
0.008333
  1
BARS SPA. @ 1'-0" C/C
  7
TXT
210
0.0
220
0.0
230
1.0
100
AcDbText
  0
TEXT
  5
182
100
AcDbEntity
  8
1
  6
CONTINUOUS
 62
   110
100
AcDbText
 10
6.765417
 20
-0.544417
 30
0.0
 40
0.008333
  1
P501
  7
TXT
210
0.0
220
0.0
230
1.0
100
AcDbText
  0
TEXT
  5
183
100
AcDbEntity
  8
1
  6
CONTINUOUS
 62
   110
100
AcDbText
 10
6.8675
 20
-0.546833
 30
0.0
 40
0.008333
  1
P502
  7
TXT
210
0.0
220
0.0
230
1.0
100
AcDbText
  0
TEXT
  5
184
100
AcDbEntity
  8
1
  6
CONTINUOUS
 62
   110
100
AcDbText
 10
6.761583
 20
-0.673333
 30
0.0
 40
0.008333
  1
P503
  7
TXT
210
0.0
220
0.0
230
1.0
100
AcDbText
  0
TEXT
  5
185
100
AcDbEntity
  8
1
  6
CONTINUOUS
 62
   253
100
AcDbText
 10
8.82125
 20
0.227417
 30
0.0
 40
0.008333
  1
A
  7
TXT
210
0.0
220
0.0
230
1.0
100
AcDbText
  0
TEXT
  5
186
100
AcDbEntity
  8
1
  6
CONTINUOUS
 62
   253
100
AcDbText
 10
8.820583
 20
0.194417
 30
0.0
 40
0.008333
  1
B
  7
TXT
210
0.0
220
0.0
230
1.0
100
AcDbText
  0
TEXT
  5
187
100
AcDbEntity
  8
1
  6
CONTINUOUS
 62
   253
100
AcDbText
 10
8.819833
 20
0.16075
 30
0.0
 40
0.008333
  1
C
  7
TXT
210
0.0
220
0.0
230
1.0
100
AcDbText
  0
TEXT
  5
188
100
AcDbEntity
  8
1
  6
CONTINUOUS
 62
   253
100
AcDbText
 10
8.819
 20
0.127833
 30
0.0
 40
0.008333
  1
D
  7
TXT
210
0.0
220
0.0
230
1.0
100
AcDbText
  0
TEXT
  5
189
100
AcDbEntity
  8
1
  6
CONTINUOUS
 62
   253
100
AcDbText
 10
8.819
 20
0.094167
 30
0.0
 40
0.008333
  1
E
  7
TXT
210
0.0
220
0.0
230
1.0
100
AcDbText
  0
TEXT
  5
18A
100
AcDbEntity
  8
1
  6
CONTINUOUS
 62
   253
100
AcDbText
 10
8.92925
 20
0.228083
 30
0.0
 40
0.008333
  1
HT. OF STEM
  7
TXT
210
0.0
220
0.0
230
1.0
100
AcDbText
  0
TEXT
  5
18B
100
AcDbEntity
  8
1
  6
CONTINUOUS
 62
   253
100
AcDbText
 10
8.923083
 20
0.195917
 30
0.0
 40
0.008333
  1
LEN. OF STEM
  7
TXT
210
0.0
220
0.0
230
1.0
100
AcDbText
  0
TEXT
  5
18C
100
AcDbEntity
  8
1
  6
CONTINUOUS
 62
   253
100
AcDbText
 10
8.913167
 20
0.1615
 30
0.0
 40
0.008333
  1
LEN. OF FOOTING
  7
TXT
210
0.0
220
0.0
230
1.0
100
AcDbText
  0
TEXT
  5
18D
100
AcDbEntity
  8
1
  6
CONTINUOUS
 62
   253
100
AcDbText
 10
8.90475
 20
0.128583
 30
0.0
 40
0.008333
  1
WIDTH OF FOOTING
  7
TXT
210
0.0
220
0.0
230
1.0
100
AcDbText
  0
TEXT
  5
18E
100
AcDbEntity
  8
1
  6
CONTINUOUS
 62
   253
100
AcDbText
 10
8.897917
 20
0.11325
 30
0.0
 40
0.008333
  1
DIST. FACE OF PIER
  7
TXT
210
0.0
220
0.0
230
1.0
100
AcDbText
  0
TEXT
  5
18F
100
AcDbEntity
  8
1
  6
CONTINUOUS
 62
   253
100
AcDbText
 10
8.89325
 20
0.09575
 30
0.0
 40
0.008333
  1
TO FACE OF FOOTING
  7
TXT
210
0.0
220
0.0
230
1.0
100
AcDbText
  0
TEXT
  5
190
100
AcDbEntity
  8
1
  6
CONTINUOUS
 62
   211
100
AcDbText
 10
8.7575
 20
-0.318583
 30
0.0
 40
0.008333
  1
MARK
  7
TXT
210
0.0
220
0.0
230
1.0
100
AcDbText
  0
TEXT
  5
191
100
AcDbEntity
  8
1
  6
CONTINUOUS
 62
   253
100
AcDbText
 10
8.754083
 20
-0.350917
 30
0.0
 40
0.008333
  1
P501
  7
TXT
210
0.0
220
0.0
230
1.0
100
AcDbText
  0
TEXT
  5
192
100
AcDbEntity
  8
1
  6
CONTINUOUS
 62
   253
100
AcDbText
 10
8.753417
 20
-0.382583
 30
0.0
 40
0.008333
  1
P502
  7
TXT
210
0.0
220
0.0
230
1.0
100
AcDbText
  0
TEXT
  5
193
100
AcDbEntity
  8
1
  6
CONTINUOUS
 62
   253
100
AcDbText
 10
8.753417
 20
-0.41625
 30
0.0
 40
0.008333
  1
P503
  7
TXT
210
0.0
220
0.0
230
1.0
100
AcDbText
  0
TEXT
  5
194
100
AcDbEntity
  8
1
  6
CONTINUOUS
 62
   211
100
AcDbText
 10
8.839333
 20
-0.304167
 30
0.0
 40
0.008333
  1
BAR
  7
TXT
210
0.0
220
0.0
230
1.0
100
AcDbText
  0
TEXT
  5
195
100
AcDbEntity
  8
1
  6
CONTINUOUS
 62
   211
100
AcDbText
 10
8.8325
 20
-0.32
 30
0.0
 40
0.008333
  1
TYPE
  7
TXT
210
0.0
220
0.0
230
1.0
100
AcDbText
  0
TEXT
  5
196
100
AcDbEntity
  8
1
  6
CONTINUOUS
 62
   253
100
AcDbText
 10
8.83925
 20
-0.352833
 30
0.0
 40
0.008333
  1
STR.
  7
TXT
210
0.0
220
0.0
230
1.0
100
AcDbText
  0
TEXT
  5
197
100
AcDbEntity
  8
1
  6
CONTINUOUS
 62
   253
100
AcDbText
 10
8.839333
 20
-0.385917
 30
0.0
 40
0.008333
  1
STR.
  7
TXT
210
0.0
220
0.0
230
1.0
100
AcDbText
  0
TEXT
  5
198
100
AcDbEntity
  8
1
  6
CONTINUOUS
 62
   253
100
AcDbText
 10
8.837917
 20
-0.419667
 30
0.0
 40
0.008333
  1
BENT
  7
TXT
210
0.0
220
0.0
230
1.0
100
AcDbText
  0
TEXT
  5
199
100
AcDbEntity
  8
1
  6
CONTINUOUS
 62
   211
100
AcDbText
 10
8.900917
 20
-0.303833
 30
0.0
 40
0.008333
  1
FORMULA NO.
  7
TXT
210
0.0
220
0.0
230
1.0
100
AcDbText
  0
TEXT
  5
19A
100
AcDbEntity
  8
1
  6
CONTINUOUS
 62
   253
100
AcDbText
 10
8.912
 20
-0.353417
 30
0.0
 40
0.008333
  1
(B*2)+2
  7
TXT
210
0.0
220
0.0
230
1.0
100
AcDbText
  0
TEXT
  5
19B
100
AcDbEntity
  8
1
  6
CONTINUOUS
 62
   211
100
AcDbText
 10
9.013333
 20
-0.3055
 30
0.0
 40
0.008333
  1
NO. BARS
  7
TXT
210
0.0
220
0.0
230
1.0
100
AcDbText
  0
TEXT
  5
19C
100
AcDbEntity
  8
1
  6
CONTINUOUS
 62
   211
100
AcDbText
 10
9.10275
 20
-0.304083
 30
0.0
 40
0.008333
  1
FORMULA LEN.
  7
TXT
210
0.0
220
0.0
230
1.0
100
AcDbText
  0
TEXT
  5
19D
100
AcDbEntity
  8
1
  6
CONTINUOUS
 62
   211
100
AcDbText
 10
9.104833
 20
-0.321333
 30
0.0
 40
0.008333
  1
OF BARS
  7
TXT
210
0.0
220
0.0
230
1.0
100
AcDbText
  0
TEXT
  5
19E
100
AcDbEntity
  8
1
  6
CONTINUOUS
 62
   253
100
AcDbText
 10
9.13425
 20
-0.355167
 30
0.0
 40
0.008333
  1
A-6"
  7
TXT
210
0.0
220
0.0
230
1.0
100
AcDbText
  0
TEXT
  5
19F
100
AcDbEntity
  8
1
  6
CONTINUOUS
 62
   253
100
AcDbText
 10
9.134083
 20
-0.387833
 30
0.0
 40
0.008333
  1
B-6"
  7
TXT
210
0.0
220
0.0
230
1.0
100
AcDbText
  0
TEXT
  5
1A0
100
AcDbEntity
  8
1
  6
CONTINUOUS
 62
   211
100
AcDbText
 10
9.22175
 20
-0.320667
 30
0.0
 40
0.008333
  1
OF BARS
  7
TXT
210
0.0
220
0.0
230
1.0
100
AcDbText
  0
TEXT
  5
1A1
100
AcDbEntity
  8
1
  6
CONTINUOUS
 62
   253
100
AcDbText
 10
9.233583
 20
-0.422333
 30
0.0
 40
0.008333
  1
5'-10"
  7
TXT
210
0.0
220
0.0
230
1.0
100
AcDbText
  0
TEXT
  5
1A2
100
AcDbEntity
  8
1
  6
CONTINUOUS
 62
   211
100
AcDbText
 10
8.796083
 20
-0.912833
 30
0.0
 40
0.008333
  1
ITEM
  7
TXT
210
0.0
220
0.0
230
1.0
100
AcDbText
  0
TEXT
  5
1A3
100
AcDbEntity
  8
1
  6
CONTINUOUS
 62
   211
100
AcDbText
 10
8.945417
 20
-0.91075
 30
0.0
 40
0.008333
  1
DESCRIPTION
  7
TXT
210
0.0
220
0.0
230
1.0
100
AcDbText
  0
TEXT
  5
1A4
100
AcDbEntity
  8
1
  6
CONTINUOUS
 62
   211
100
AcDbText
 10
9.136333
 20
-0.91
 30
0.0
 40
0.008333
  1
UNIT
  7
TXT
210
0.0
220
0.0
230
1.0
100
AcDbText
  0
TEXT
  5
1A5
100
AcDbEntity
  8
1
  6
CONTINUOUS
 62
   211
100
AcDbText
 10
9.224167
 20
-0.908917
 30
0.0
 40
0.008333
  1
QUANTITY
  7
TXT
210
0.0
220
0.0
230
1.0
100
AcDbText
  0
TEXT
  5
1A6
100
AcDbEntity
  8
1
  6
CONTINUOUS
 62
   253
100
AcDbText
 10
8.798917
 20
-0.97675
 30
0.0
 40
0.008333
  1
602-1
  7
TXT
210
0.0
220
0.0
230
1.0
100
AcDbText
  0
TEXT
  5
1A7
100
AcDbEntity
  8
1
  6
CONTINUOUS
 62
   253
100
AcDbText
 10
8.923083
 20
-0.945417
 30
0.0
 40
0.008333
  1
CLASS B CONCRETE
  7
TXT
210
0.0
220
0.0
230
1.0
100
AcDbText
  0
TEXT
  5
1A8
100
AcDbEntity
  8
1
  6
CONTINUOUS
 62
   253
100
AcDbText
 10
8.897833
 20
-0.9775
 30
0.0
 40
0.008333
  1
REINFORCING STEEL BARS
  7
TXT
210
0.0
220
0.0
230
1.0
100
AcDbText
  0
TEXT
  5
1A9
100
AcDbEntity
  8
1
  6
CONTINUOUS
 62
   253
100
AcDbText
 10
9.140333
 20
-0.939667
 30
0.0
 40
0.008333
  1
CY
  7
TXT
210
0.0
220
0.0
230
1.0
100
AcDbText
  0
TEXT
  5
1AA
100
AcDbEntity
  8
1
  6
CONTINUOUS
 62
   253
100
AcDbText
 10
9.142083
 20
-0.974417
 30
0.0
 40
0.008333
  1
LB
  7
TXT
210
0.0
220
0.0
230
1.0
100
AcDbText
  0
TEXT
  5
1AB
100
AcDbEntity
  8
1
  6
CONTINUOUS
 62
    91
100
AcDbText
 10
7.777333
 20
-1.047
 30
0.0
 40
0.020833
  1
SECTION 'A-A'
  7
TXT
210
0.0
220
0.0
230
1.0
100
AcDbText
  0
POLYLINE
  5
1AC
100
AcDbEntity
  8
1
  6
CONTINUOUS
 62
   151
100
AcDb2dPolyline
 66
     1
 10
0.0
 20
0.0
 30
0.0
  0
VERTEX
  5
1AD
100
AcDbEntity
  8
1
  6
CONTINUOUS
 62
   151
100
AcDbVertex
100
AcDb2dVertex
 10
8.211917
 20
0.1415
 30
0.0
  0
VERTEX
  5
1AE
100
AcDbEntity
  8
1
  6
CONTINUOUS
 62
   151
100
AcDbVertex
100
AcDb2dVertex
 10
8.211917
 20
0.19375
 30
0.0
  0
VERTEX
  5
1AF
100
AcDbEntity
  8
1
  6
CONTINUOUS
 62
   151
100
AcDbVertex
100
AcDb2dVertex
 10
8.341583
 20
0.19375
 30
0.0
  0
VERTEX
  5
1B0
100
AcDbEntity
  8
1
  6
CONTINUOUS
 62
   151
100
AcDbVertex
100
AcDb2dVertex
 10
8.341583
 20
0.141167
 30
0.0
  0
SEQEND
  5
1B1
100
AcDbEntity
  8
1
  6
CONTINUOUS
 62
   151
  0
LINE
  5
1B2
100
AcDbEntity
  8
1
  6
CONTINUOUS
 62
   131
100
AcDbLine
 10
8.211917
 20
0.1415
 30
0.0
 11
8.17025
 21
0.1415
 31
0.0
  0
LINE
  5
1B3
100
AcDbEntity
  8
1
  6
CONTINUOUS
 62
   131
100
AcDbLine
 10
8.211917
 20
0.19375
 30
0.0
 11
8.17025
 21
0.19375
 31
0.0
  0
LINE
  5
1B4
100
AcDbEntity
  8
1
  6
CONTINUOUS
 62
   131
100
AcDbLine
 10
8.211917
 20
0.19375
 30
0.0
 11
8.211917
 21
0.235417
 31
0.0
  0
LINE
  5
1B5
100
AcDbEntity
  8
1
  6
CONTINUOUS
 62
   131
100
AcDbLine
 10
8.341583
 20
0.19375
 30
0.0
 11
8.341583
 21
0.235417
 31
0.0
  0
LINE
  5
1B6
100
AcDbEntity
  8
1
  6
CONTINUOUS
 62
   131
100
AcDbLine
 10
8.180167
 20
0.19375
 30
0.0
 11
8.180167
 21
0.14225
 31
0.0
  0
TEXT
  5
1B7
100
AcDbEntity
  8
1
  6
CONTINUOUS
 62
   110
100
AcDbText
 10
8.258
 20
0.22775
 30
0.0
 40
0.008333
  1
2'-6"
  7
TXT
210
0.0
220
0.0
230
1.0
100
AcDbText
  0
TEXT
  5
1B8
100
AcDbEntity
  8
1
  6
CONTINUOUS
 62
   110
100
AcDbText
 10
8.173583
 20
0.15425
 30
0.0
 40
0.008333
  1
1'-8"
 50
90.0
  7
TXT
210
0.0
220
0.0
230
1.0
100
AcDbText
  0
TEXT
  5
1B9
100
AcDbEntity
  8
1
  6
CONTINUOUS
 62
   110
100
AcDbText
 10
6.660833
 20
-0.655333
 30
0.0
 40
0.008333
  1
1'-6"
  7
TXT
210
0.0
220
0.0
230
1.0
100
AcDbText
  0
TEXT
  5
1BA
100
AcDbEntity
  8
1
  6
CONTINUOUS
 62
   110
100
AcDbText
 10
7.330333
 20
-0.654833
 30
0.0
 40
0.008333
  1
1'-6"
  7
TXT
210
0.0
220
0.0
230
1.0
100
AcDbText
  0
TEXT
  5
1BB
100
AcDbEntity
  8
1
  6
CONTINUOUS
 62
   110
100
AcDbText
 10
6.827667
 20
-0.3355
 30
0.0
 40
0.016666
  1
A
  7
TXT
210
0.0
220
0.0
230
1.0
100
AcDbText
  0
TEXT
  5
1BC
100
AcDbEntity
  8
1
  6
CONTINUOUS
 62
   110
100
AcDbText
 10
6.825583
 20
-0.972083
 30
0.0
 40
0.016666
  1
A
  7
TXT
210
0.0
220
0.0
230
1.0
100
AcDbText
  0
LINE
  5
1BD
100
AcDbEntity
  8
1
  6
CONTINUOUS
 62
   131
100
AcDbLine
 10
6.572083
 20
-0.704833
 30
0.0
 11
6.572083
 21
-0.408083
 31
0.0
  0
TEXT
  5
1BE
100
AcDbEntity
  8
1
  6
CONTINUOUS
 62
    91
100
AcDbText
 10
8.1715
 20
-0.008333
 30
0.0
 40
0.016666
  1
BAR LAP TABLE
  7
TXT
210
0.0
220
0.0
230
1.0
100
AcDbText
  0
TEXT
  5
1BF
100
AcDbEntity
  8
1
  6
CONTINUOUS
 62
   211
100
AcDbText
 10
8.15725
 20
-0.043417
 30
0.0
 40
0.008333
  1
BAR NO.
  7
TXT
210
0.0
220
0.0
230
1.0
100
AcDbText
  0
TEXT
  5
1C0
100
AcDbEntity
  8
1
  6
CONTINUOUS
 62
   253
100
AcDbText
 10
8.167333
 20
-0.084417
 30
0.0
 40
0.008333
  1
#5
  7
TXT
210
0.0
220
0.0
230
1.0
100
AcDbText
  0
INSERT
  5
1EC
100
AcDbEntity
  8
1
  6
CONTINUOUS
 62
     2
100
AcDbBlockReference
  2
ARROW1
 10
8.180167
 20
0.193583
 30
0.0
 41
0.21094
 42
0.21094
 50
90.0
210
0.0
220
0.0
230
1.0
  0
INSERT
  5
1ED
100
AcDbEntity
  8
1
  6
CONTINUOUS
 62
     2
100
AcDbBlockReference
  2
ARROW1
 10
8.180167
 20
0.14175
 30
0.0
 41
0.21094
 42
0.21094
 50
270.0
210
0.0
220
0.0
230
1.0
  0
INSERT
  5
1EE
100
AcDbEntity
  8
1
  6
CONTINUOUS
 62
     2
100
AcDbBlockReference
  2
ARROW1
 10
8.212083
 20
0.223833
 30
0.0
 41
0.21094
 42
0.21094
 50
180.0
210
0.0
220
0.0
230
1.0
  0
INSERT
  5
1EF
100
AcDbEntity
  8
1
  6
CONTINUOUS
 62
     2
100
AcDbBlockReference
  2
ARROW1
 10
8.341417
 20
0.223833
 30
0.0
 41
0.21094
 42
0.21094
210
0.0
220
0.0
230
1.0
  0
INSERT
  5
1F0
100
AcDbEntity
  8
1
  6
CONTINUOUS
 62
     2
100
AcDbBlockReference
  2
ARROW1
 10
8.112167
 20
-0.389667
 30
0.0
 41
0.21094
 42
0.21094
 50
90.0
210
0.0
220
0.0
230
1.0
  0
INSERT
  5
1F1
100
AcDbEntity
  8
1
  6
CONTINUOUS
 62
     2
100
AcDbBlockReference
  2
ARROW1
 10
8.112167
 20
-0.723
 30
0.0
 41
0.21094
 42
0.21094
 50
90.0
210
0.0
220
0.0
230
1.0
  0
INSERT
  5
1F2
100
AcDbEntity
  8
1
  6
CONTINUOUS
 62
     2
100
AcDbBlockReference
  2
ARROW1
 10
8.06375
 20
-0.389083
 30
0.0
 41
0.21094
 42
0.21094
 50
270.0
210
0.0
220
0.0
230
1.0
  0
INSERT
  5
1F3
100
AcDbEntity
  8
1
  6
CONTINUOUS
 62
     2
100
AcDbBlockReference
  2
ARROW1
 10
8.112167
 20
-0.722583
 30
0.0
 41
0.21094
 42
0.21094
 50
270.0
210
0.0
220
0.0
230
1.0
  0
INSERT
  5
1F4
100
AcDbEntity
  8
1
  6
CONTINUOUS
 62
     2
100
AcDbBlockReference
  2
ARROW1
 10
8.112167
 20
-0.806
 30
0.0
 41
0.21094
 42
0.21094
 50
270.0
210
0.0
220
0.0
230
1.0
  0
INSERT
  5
1F5
100
AcDbEntity
  8
1
  6
CONTINUOUS
 62
     2
100
AcDbBlockReference
  2
ARROW1
 10
7.793583
 20
-0.326083
 30
0.0
 41
0.21094
 42
0.21094
 50
180.0
210
0.0
220
0.0
230
1.0
  0
INSERT
  5
1F6
100
AcDbEntity
  8
1
  6
CONTINUOUS
 62
     2
100
AcDbBlockReference
  2
ARROW1
 10
7.81125
 20
-0.364167
 30
0.0
 41
0.21094
 42
0.21094
 50
180.0
210
0.0
220
0.0
230
1.0
  0
INSERT
  5
1F7
100
AcDbEntity
  8
1
  6
CONTINUOUS
 62
     2
100
AcDbBlockReference
  2
ARROW1
 10
7.96025
 20
-0.364167
 30
0.0
 41
0.21094
 42
0.21094
 50
180.0
210
0.0
220
0.0
230
1.0
  0
INSERT
  5
1F8
100
AcDbEntity
  8
1
  6
CONTINUOUS
 62
     2
100
AcDbBlockReference
  2
ARROW1
 10
7.960333
 20
-0.664667
 30
0.0
 41
0.21094
 42
0.21094
 50
180.0
210
0.0
220
0.0
230
1.0
  0
INSERT
  5
1F9
100
AcDbEntity
  8
1
  6
CONTINUOUS
 62
     2
100
AcDbBlockReference
  2
ARROW1
 10
7.71025
 20
-0.6645
 30
0.0
 41
0.21094
 42
0.21094
 50
180.0
210
0.0
220
0.0
230
1.0
  0
INSERT
  5
1FA
100
AcDbEntity
  8
1
  6
CONTINUOUS
 62
     2
100
AcDbBlockReference
  2
ARROW1
 10
7.709667
 20
-0.957667
 30
0.0
 41
0.21094
 42
0.21094
 50
180.0
210
0.0
220
0.0
230
1.0
  0
INSERT
  5
1FB
100
AcDbEntity
  8
1
  6
CONTINUOUS
 62
     2
100
AcDbBlockReference
  2
ARROW1
 10
7.959917
 20
-0.326083
 30
0.0
 41
0.21094
 42
0.21094
210
0.0
220
0.0
230
1.0
  0
INSERT
  5
1FC
100
AcDbEntity
  8
1
  6
CONTINUOUS
 62
     2
100
AcDbBlockReference
  2
ARROW1
 10
7.94225
 20
-0.364167
 30
0.0
 41
0.21094
 42
0.21094
210
0.0
220
0.0
230
1.0
  0
INSERT
  5
1FD
100
AcDbEntity
  8
1
  6
CONTINUOUS
 62
     2
100
AcDbBlockReference
  2
ARROW1
 10
7.79325
 20
-0.364083
 30
0.0
 41
0.21094
 42
0.21094
210
0.0
220
0.0
230
1.0
  0
INSERT
  5
1FE
100
AcDbEntity
  8
1
  6
CONTINUOUS
 62
     2
100
AcDbBlockReference
  2
ARROW1
 10
7.793167
 20
-0.6645
 30
0.0
 41
0.21094
 42
0.21094
210
0.0
220
0.0
230
1.0
  0
INSERT
  5
1FF
100
AcDbEntity
  8
1
  6
CONTINUOUS
 62
     2
100
AcDbBlockReference
  2
ARROW1
 10
8.04325
 20
-0.664667
 30
0.0
 41
0.21094
 42
0.21094
210
0.0
220
0.0
230
1.0
  0
INSERT
  5
200
100
AcDbEntity
  8
1
  6
CONTINUOUS
 62
     2
100
AcDbBlockReference
  2
ARROW1
 10
8.042667
 20
-0.957667
 30
0.0
 41
0.21094
 42
0.21094
210
0.0
220
0.0
230
1.0
  0
INSERT
  5
201
100
AcDbEntity
  8
1
  6
CONTINUOUS
 62
     2
100
AcDbBlockReference
  2
ARROW1
 10
7.218917
 20
0.256167
 30
0.0
 41
0.21094
 42
0.21094
210
0.0
220
0.0
230
1.0
  0
INSERT
  5
202
100
AcDbEntity
  8
1
  6
CONTINUOUS
 62
     2
100
AcDbBlockReference
  2
ARROW1
 10
7.28425
 20
0.256167
 30
0.0
 41
0.21094
 42
0.21094
210
0.0
220
0.0
230
1.0
  0
INSERT
  5
203
100
AcDbEntity
  8
1
  6
CONTINUOUS
 62
     2
100
AcDbBlockReference
  2
ARROW1
 10
7.302
 20
0.288417
 30
0.0
 41
0.21094
 42
0.21094
210
0.0
220
0.0
230
1.0
  0
INSERT
  5
204
100
AcDbEntity
  8
1
  6
CONTINUOUS
 62
     2
100
AcDbBlockReference
  2
ARROW1
 10
7.3025
 20
0.256
 30
0.0
 41
0.21094
 42
0.21094
 50
180.0
210
0.0
220
0.0
230
1.0
  0
INSERT
  5
205
100
AcDbEntity
  8
1
  6
CONTINUOUS
 62
     2
100
AcDbBlockReference
  2
ARROW1
 10
7.330167
 20
0.212417
 30
0.0
 41
0.21094
 42
0.21094
 50
270.0
210
0.0
220
0.0
230
1.0
  0
INSERT
  5
206
100
AcDbEntity
  8
1
  6
CONTINUOUS
 62
     2
100
AcDbBlockReference
  2
ARROW1
 10
7.329833
 20
0.063333
 30
0.0
 41
0.21094
 42
0.21094
 50
270.0
210
0.0
220
0.0
230
1.0
  0
INSERT
  5
207
100
AcDbEntity
  8
1
  6
CONTINUOUS
 62
     2
100
AcDbBlockReference
  2
ARROW1
 10
7.372417
 20
0.045667
 30
0.0
 41
0.21094
 42
0.21094
 50
270.0
210
0.0
220
0.0
230
1.0
  0
INSERT
  5
208
100
AcDbEntity
  8
1
  6
CONTINUOUS
 62
     2
100
AcDbBlockReference
  2
ARROW1
 10
7.32975
 20
0.195417
 30
0.0
 41
0.21094
 42
0.21094
 50
90.0
210
0.0
220
0.0
230
1.0
  0
INSERT
  5
209
100
AcDbEntity
  8
1
  6
CONTINUOUS
 62
     2
100
AcDbBlockReference
  2
ARROW1
 10
7.372417
 20
0.211917
 30
0.0
 41
0.21094
 42
0.21094
 50
90.0
210
0.0
220
0.0
230
1.0
  0
INSERT
  5
20A
100
AcDbEntity
  8
1
  6
CONTINUOUS
 62
     2
100
AcDbBlockReference
  2
ARROW1
 10
7.330167
 20
0.045167
 30
0.0
 41
0.21094
 42
0.21094
 50
90.0
210
0.0
220
0.0
230
1.0
  0
INSERT
  5
20B
100
AcDbEntity
  8
1
  6
CONTINUOUS
 62
     2
100
AcDbBlockReference
  2
ARROW1
 10
6.802333
 20
0.256167
 30
0.0
 41
0.21094
 42
0.21094
210
0.0
220
0.0
230
1.0
  0
INSERT
  5
20C
100
AcDbEntity
  8
1
  6
CONTINUOUS
 62
     2
100
AcDbBlockReference
  2
ARROW1
 10
6.718667
 20
0.256833
 30
0.0
 41
0.21094
 42
0.21094
210
0.0
220
0.0
230
1.0
  0
INSERT
  5
20D
100
AcDbEntity
  8
1
  6
CONTINUOUS
 62
     2
100
AcDbBlockReference
  2
ARROW1
 10
6.802667
 20
0.256167
 30
0.0
 41
0.21094
 42
0.21094
 50
180.0
210
0.0
220
0.0
230
1.0
  0
INSERT
  5
20E
100
AcDbEntity
  8
1
  6
CONTINUOUS
 62
     2
100
AcDbBlockReference
  2
ARROW1
 10
6.736833
 20
0.25625
 30
0.0
 41
0.21094
 42
0.21094
 50
180.0
210
0.0
220
0.0
230
1.0
  0
INSERT
  5
20F
100
AcDbEntity
  8
1
  6
CONTINUOUS
 62
     2
100
AcDbBlockReference
  2
ARROW1
 10
6.719083
 20
0.288417
 30
0.0
 41
0.21094
 42
0.21094
 50
180.0
210
0.0
220
0.0
230
1.0
  0
INSERT
  5
210
100
AcDbEntity
  8
1
  6
CONTINUOUS
 62
     2
100
AcDbBlockReference
  2
ARROW1
 10
7.219333
 20
0.256167
 30
0.0
 41
0.21094
 42
0.21094
 50
180.0
210
0.0
220
0.0
230
1.0
  0
INSERT
  5
211
100
AcDbEntity
  8
1
  6
CONTINUOUS
 62
     2
100
AcDbBlockReference
  2
ARROW1
 10
7.45075
 20
-0.389917
 30
0.0
 41
0.21094
 42
0.21094
 50
90.0
210
0.0
220
0.0
230
1.0
  0
INSERT
  5
212
100
AcDbEntity
  8
1
  6
CONTINUOUS
 62
     2
100
AcDbBlockReference
  2
ARROW1
 10
6.572167
 20
-0.407417
 30
0.0
 41
0.21094
 42
0.21094
 50
90.0
210
0.0
220
0.0
230
1.0
  0
INSERT
  5
213
100
AcDbEntity
  8
1
  6
CONTINUOUS
 62
     2
100
AcDbBlockReference
  2
ARROW1
 10
6.572083
 20
-0.723083
 30
0.0
 41
0.21094
 42
0.21094
 50
90.0
210
0.0
220
0.0
230
1.0
  0
INSERT
  5
214
100
AcDbEntity
  8
1
  6
CONTINUOUS
 62
     2
100
AcDbBlockReference
  2
ARROW1
 10
7.45075
 20
-0.723083
 30
0.0
 41
0.21094
 42
0.21094
 50
90.0
210
0.0
220
0.0
230
1.0
  0
INSERT
  5
215
100
AcDbEntity
  8
1
  6
CONTINUOUS
 62
     2
100
AcDbBlockReference
  2
ARROW1
 10
7.421083
 20
-0.74525
 30
0.0
 41
0.21094
 42
0.21094
 50
90.0
210
0.0
220
0.0
230
1.0
  0
INSERT
  5
216
100
AcDbEntity
  8
1
  6
CONTINUOUS
 62
     2
100
AcDbBlockReference
  2
ARROW1
 10
7.421167
 20
-0.8065
 30
0.0
 41
0.21094
 42
0.21094
 50
90.0
210
0.0
220
0.0
230
1.0
  0
INSERT
  5
217
100
AcDbEntity
  8
1
  6
CONTINUOUS
 62
     2
100
AcDbBlockReference
  2
ARROW1
 10
6.572167
 20
-0.389333
 30
0.0
 41
0.21094
 42
0.21094
 50
270.0
210
0.0
220
0.0
230
1.0
  0
INSERT
  5
218
100
AcDbEntity
  8
1
  6
CONTINUOUS
 62
     2
100
AcDbBlockReference
  2
ARROW1
 10
6.572083
 20
-0.705
 30
0.0
 41
0.21094
 42
0.21094
 50
270.0
210
0.0
220
0.0
230
1.0
  0
INSERT
  5
219
100
AcDbEntity
  8
1
  6
CONTINUOUS
 62
     2
100
AcDbBlockReference
  2
ARROW1
 10
7.45075
 20
-0.722667
 30
0.0
 41
0.21094
 42
0.21094
 50
270.0
210
0.0
220
0.0
230
1.0
  0
INSERT
  5
21A
100
AcDbEntity
  8
1
  6
CONTINUOUS
 62
     2
100
AcDbBlockReference
  2
ARROW1
 10
7.45075
 20
-0.806083
 30
0.0
 41
0.21094
 42
0.21094
 50
270.0
210
0.0
220
0.0
230
1.0
  0
INSERT
  5
21B
100
AcDbEntity
  8
1
  6
CONTINUOUS
 62
     2
100
AcDbBlockReference
  2
ARROW1
 10
6.718667
 20
-0.362917
 30
0.0
 41
0.21094
 42
0.21094
210
0.0
220
0.0
230
1.0
  0
INSERT
  5
21C
100
AcDbEntity
  8
1
  6
CONTINUOUS
 62
     2
100
AcDbBlockReference
  2
ARROW1
 10
7.302
 20
-0.242917
 30
0.0
 41
0.21094
 42
0.21094
210
0.0
220
0.0
230
1.0
  0
INSERT
  5
21D
100
AcDbEntity
  8
1
  6
CONTINUOUS
 62
     2
100
AcDbBlockReference
  2
ARROW1
 10
7.290333
 20
-0.36075
 30
0.0
 41
0.21094
 42
0.21094
210
0.0
220
0.0
230
1.0
  0
INSERT
  5
21E
100
AcDbEntity
  8
1
  6
CONTINUOUS
 62
     2
100
AcDbBlockReference
  2
ARROW1
 10
6.634583
 20
-1.014667
 30
0.0
 41
0.21094
 42
0.21094
210
0.0
220
0.0
230
1.0
  0
INSERT
  5
21F
100
AcDbEntity
  8
1
  6
CONTINUOUS
 62
     2
100
AcDbBlockReference
  2
ARROW1
 10
6.718667
 20
-0.660833
 30
0.0
 41
0.21094
 42
0.21094
210
0.0
220
0.0
230
1.0
  0
INSERT
  5
220
100
AcDbEntity
  8
1
  6
CONTINUOUS
 62
     2
100
AcDbBlockReference
  2
ARROW1
 10
7.384083
 20
-1.066083
 30
0.0
 41
0.21094
 42
0.21094
210
0.0
220
0.0
230
1.0
  0
INSERT
  5
221
100
AcDbEntity
  8
1
  6
CONTINUOUS
 62
     2
100
AcDbBlockReference
  2
ARROW1
 10
7.385417
 20
-0.660833
 30
0.0
 41
0.21094
 42
0.21094
210
0.0
220
0.0
230
1.0
  0
INSERT
  5
222
100
AcDbEntity
  8
1
  6
CONTINUOUS
 62
     2
100
AcDbBlockReference
  2
ARROW1
 10
7.367667
 20
-0.6885
 30
0.0
 41
0.21094
 42
0.21094
210
0.0
220
0.0
230
1.0
  0
INSERT
  5
223
100
AcDbEntity
  8
1
  6
CONTINUOUS
 62
     2
100
AcDbBlockReference
  2
ARROW1
 10
6.719583
 20
-0.242917
 30
0.0
 41
0.21094
 42
0.21094
 50
180.0
210
0.0
220
0.0
230
1.0
  0
INSERT
  5
224
100
AcDbEntity
  8
1
  6
CONTINUOUS
 62
     2
100
AcDbBlockReference
  2
ARROW1
 10
6.73675
 20
-0.362917
 30
0.0
 41
0.21094
 42
0.21094
 50
180.0
210
0.0
220
0.0
230
1.0
  0
INSERT
  5
225
100
AcDbEntity
  8
1
  6
CONTINUOUS
 62
     2
100
AcDbBlockReference
  2
ARROW1
 10
7.3025
 20
-0.359917
 30
0.0
 41
0.21094
 42
0.21094
 50
180.0
210
0.0
220
0.0
230
1.0
  0
INSERT
  5
226
100
AcDbEntity
  8
1
  6
CONTINUOUS
 62
     2
100
AcDbBlockReference
  2
ARROW1
 10
7.302417
 20
-0.660833
 30
0.0
 41
0.21094
 42
0.21094
 50
180.0
210
0.0
220
0.0
230
1.0
  0
INSERT
  5
227
100
AcDbEntity
  8
1
  6
CONTINUOUS
 62
     2
100
AcDbBlockReference
  2
ARROW1
 10
7.38575
 20
-0.6885
 30
0.0
 41
0.21094
 42
0.21094
 50
180.0
210
0.0
220
0.0
230
1.0
  0
INSERT
  5
228
100
AcDbEntity
  8
1
  6
CONTINUOUS
 62
     2
100
AcDbBlockReference
  2
ARROW1
 10
7.385833
 20
-1.0165
 30
0.0
 41
0.21094
 42
0.21094
 50
180.0
210
0.0
220
0.0
230
1.0
  0
INSERT
  5
229
100
AcDbEntity
  8
1
  6
CONTINUOUS
 62
     2
100
AcDbBlockReference
  2
ARROW1
 10
6.653167
 20
-1.01575
 30
0.0
 41
0.21094
 42
0.21094
 50
180.0
210
0.0
220
0.0
230
1.0
  0
INSERT
  5
22A
100
AcDbEntity
  8
1
  6
CONTINUOUS
 62
     2
100
AcDbBlockReference
  2
ARROW1
 10
6.653417
 20
-0.6875
 30
0.0
 41
0.21094
 42
0.21094
 50
180.0
210
0.0
220
0.0
230
1.0
  0
INSERT
  5
22B
100
AcDbEntity
  8
1
  6
CONTINUOUS
 62
     2
100
AcDbBlockReference
  2
ARROW1
 10
6.63575
 20
-0.660833
 30
0.0
 41
0.21094
 42
0.21094
 50
180.0
210
0.0
220
0.0
230
1.0
  0
INSERT
  5
22C
100
AcDbEntity
  8
1
  6
CONTINUOUS
 62
     2
100
AcDbBlockReference
  2
ARROW1
 10
6.738417
 20
-1.01575
 30
0.0
 41
0.21094
 42
0.21094
 50
180.0
210
0.0
220
0.0
230
1.0
  0
INSERT
  5
22D
100
AcDbEntity
  8
1
  6
CONTINUOUS
 62
     2
100
AcDbBlockReference
  2
ARROW1
 10
6.635917
 20
-1.065583
 30
0.0
 41
0.21094
 42
0.21094
 50
180.0
210
0.0
220
0.0
230
1.0
  0
INSERT
  5
22E
100
AcDbEntity
  8
1
  6
CONTINUOUS
 62
     2
100
AcDbBlockReference
  2
ARROW1
 10
7.36725
 20
-1.015417
 30
0.0
 41
0.21094
 42
0.21094
210
0.0
220
0.0
230
1.0
  0
INSERT
  5
22F
100
AcDbEntity
  8
1
  6
CONTINUOUS
 62
     2
100
AcDbBlockReference
  2
ARROW1
 10
6.635333
 20
-0.6875
 30
0.0
 41
0.21094
 42
0.21094
210
0.0
220
0.0
230
1.0
  0
INSERT
  5
230
100
AcDbEntity
  8
1
  6
CONTINUOUS
 62
     2
100
AcDbBlockReference
  2
ARROW1
 10
7.421167
 20
-0.722667
 30
0.0
 41
0.21094
 42
0.21094
 50
270.0
210
0.0
220
0.0
230
1.0
  0
INSERT
  5
231
100
AcDbEntity
  8
1
  6
CONTINUOUS
 62
     2
100
AcDbBlockReference
  2
ARROW1
 10
7.421167
 20
-0.783083
 30
0.0
 41
0.21094
 42
0.21094
 50
270.0
210
0.0
220
0.0
230
1.0
  0
LINE
  5
232
100
AcDbEntity
  8
1
  6
CONTINUOUS
 62
   131
100
AcDbLine
 10
6.718833
 20
0.288417
 30
0.0
 11
7.301167
 21
0.288417
 31
0.0
  0
LINE
  5
233
100
AcDbEntity
  8
1
  6
CONTINUOUS
 62
   131
100
AcDbLine
 10
7.372417
 20
0.211417
 30
0.0
 11
7.372417
 21
0.045417
 31
0.0
  0
LINE
  5
234
100
AcDbEntity
  8
1
  6
CONTINUOUS
 62
   131
100
AcDbLine
 10
6.6355
 20
-0.660833
 30
0.0
 11
6.718417
 21
-0.660833
 31
0.0
  0
LINE
  5
235
100
AcDbEntity
  8
1
  6
CONTINUOUS
 62
   131
100
AcDbLine
 10
7.45075
 20
-0.391417
 30
0.0
 11
7.45075
 21
-0.80625
 31
0.0
  0
LINE
  5
236
100
AcDbEntity
  8
1
  6
CONTINUOUS
 62
   131
100
AcDbLine
 10
7.30225
 20
-0.660833
 30
0.0
 11
7.385167
 21
-0.660833
 31
0.0
  0
LINE
  5
237
100
AcDbEntity
  8
1
  6
CONTINUOUS
 62
   131
100
AcDbLine
 10
7.793667
 20
-0.326083
 30
0.0
 11
7.960083
 21
-0.326083
 31
0.0
  0
LINE
  5
238
100
AcDbEntity
  8
1
  6
CONTINUOUS
 62
   131
100
AcDbLine
 10
8.112167
 20
-0.805333
 30
0.0
 11
8.112167
 21
-0.389583
 31
0.0
  0
LINE
  5
239
100
AcDbEntity
  8
1
  6
CONTINUOUS
 62
   131
100
AcDbLine
 10
7.710083
 20
-0.6645
 30
0.0
 11
7.7915
 21
-0.6645
 31
0.0
  0
LINE
  5
23A
100
AcDbEntity
  8
1
  6
CONTINUOUS
 62
   131
100
AcDbLine
 10
7.961667
 20
-0.664667
 30
0.0
 11
8.043417
 21
-0.664667
 31
0.0
  0
INSERT
  5
23B
100
AcDbEntity
  8
1
  6
CONTINUOUS
 62
     2
100
AcDbBlockReference
  2
ARROW1
 10
6.818833
 20
-1.016
 30
0.0
 41
0.21094
 42
0.21094
 50
180.0
210
0.0
220
0.0
230
1.0
  0
INSERT
  5
23C
100
AcDbEntity
  8
1
  6
CONTINUOUS
 62
     2
100
AcDbBlockReference
  2
ARROW1
 10
6.81875
 20
-1.016167
 30
0.0
 41
0.21094
 42
0.21094
210
0.0
220
0.0
230
1.0
  0
TEXT
  5
23D
100
AcDbEntity
  8
1
  6
CONTINUOUS
 62
   110
100
AcDbText
 10
7.831583
 20
-0.674417
 30
0.0
 40
0.008333
  1
CONST. JT. 
  7
TXT
210
0.0
220
0.0
230
1.0
100
AcDbText
  0
INSERT
  5
23E
100
AcDbEntity
  8
1
  6
CONTINUOUS
 62
     2
100
AcDbBlockReference
  2
ARROW1
 10
7.898
 20
-0.706083
 30
0.0
 41
0.21094
 42
0.21094
 50
180.0
210
0.0
220
0.0
230
1.0
  0
INSERT
  5
23F
100
AcDbEntity
  8
1
  6
CONTINUOUS
 62
     2
100
AcDbBlockReference
  2
ARROW1
 10
7.941917
 20
-0.485083
 30
0.0
 41
0.21094
 42
0.21094
210
0.0
220
0.0
230
1.0
  0
INSERT
  5
240
100
AcDbEntity
  8
1
  6
CONTINUOUS
 62
     2
100
AcDbBlockReference
  2
ARROW1
 10
7.909083
 20
-0.407667
 30
0.0
 41
0.21094
 42
0.21094
 50
90.0
210
0.0
220
0.0
230
1.0
  0
INSERT
  5
241
100
AcDbEntity
  8
1
  6
CONTINUOUS
 62
     2
100
AcDbBlockReference
  2
ARROW1
 10
7.812917
 20
-0.490167
 30
0.0
 41
0.21094
 42
0.21094
 50
180.0
210
0.0
220
0.0
230
1.0
  0
INSERT
  5
242
100
AcDbEntity
  8
1
  6
CONTINUOUS
 62
     2
100
AcDbBlockReference
  2
ARROW1
 10
7.822583
 20
-0.586
 30
0.0
 41
0.21094
 42
0.21094
 50
180.0
210
0.0
220
0.0
230
1.0
  0
INSERT
  5
243
100
AcDbEntity
  8
1
  6
CONTINUOUS
 62
     2
100
AcDbBlockReference
  2
ARROW1
 10
7.932167
 20
-0.587417
 30
0.0
 41
0.21094
 42
0.21094
210
0.0
220
0.0
230
1.0
  0
INSERT
  5
244
100
AcDbEntity
  8
1
  6
CONTINUOUS
 62
     2
100
AcDbBlockReference
  2
ARROW1
 10
8.06425
 20
-0.708
 30
0.0
 41
0.21094
 42
0.21094
 50
270.0
210
0.0
220
0.0
230
1.0
  0
INSERT
  5
245
100
AcDbEntity
  8
1
  6
CONTINUOUS
 62
     2
100
AcDbBlockReference
  2
ARROW1
 10
8.06425
 20
-0.40725
 30
0.0
 41
0.21094
 42
0.21094
 50
90.0
210
0.0
220
0.0
230
1.0
  0
INSERT
  5
246
100
AcDbEntity
  8
1
  6
CONTINUOUS
 62
     2
100
AcDbBlockReference
  2
ARROW1
 10
8.06425
 20
-0.723167
 30
0.0
 41
0.21094
 42
0.21094
 50
90.0
210
0.0
220
0.0
230
1.0
  0
TEXT
  5
247
100
AcDbEntity
  8
1
  6
CONTINUOUS
 62
   253
100
AcDbText
 10
8.45575
 20
-1.228917
 30
0.0
 40
0.014583
  1
W.V. DEPT. OF HIGHWAYS
  7
TXT
210
0.0
220
0.0
230
1.0
100
AcDbText
  0
TEXT
  5
248
100
AcDbEntity
  8
1
  6
CONTINUOUS
 62
   253
100
AcDbText
 10
8.449583
 20
-1.254333
 30
0.0
 40
0.014583
  1
STANDARD BRIDGE PLANS
  7
TXT
210
0.0
220
0.0
230
1.0
100
AcDbText
  0
TEXT
  5
249
100
AcDbEntity
  8
1
  6
CONTINUOUS
 62
     2
100
AcDbText
 10
8.449
 20
-1.28975
 30
0.0
 40
0.014583
  1
REINFORCED CONCRETE PIER
  7
TXT
210
0.0
220
0.0
230
1.0
100
AcDbText
  0
LINE
  5
24A
100
AcDbEntity
  8
1
  6
CONTINUOUS
 62
   131
100
AcDbLine
 10
8.212417
 20
0.223833
 30
0.0
 11
8.34
 21
0.223833
 31
0.0
  0
INSERT
  5
24B
100
AcDbEntity
  8
1
  6
CONTINUOUS
 62
     2
100
AcDbBlockReference
  2
ARROW1
 10
6.846083
 20
-0.329583
 30
0.0
 41
0.711932
 42
0.711932
 50
180.0
210
0.0
220
0.0
230
1.0
  0
INSERT
  5
24C
100
AcDbEntity
  8
1
  6
CONTINUOUS
 62
     2
100
AcDbBlockReference
  2
ARROW1
 10
6.843917
 20
-0.96675
 30
0.0
 41
0.711932
 42
0.711932
 50
180.0
210
0.0
220
0.0
230
1.0
  0
INSERT
  5
24D
100
AcDbEntity
  8
1
  6
CONTINUOUS
 62
     2
100
AcDbBlockReference
  2
ARROW1
 10
6.796417
 20
0.07375
 30
0.0
 41
0.21094
 42
0.21094
 50
270.0
210
0.0
220
0.0
230
1.0
  0
INSERT
  5
24E
100
AcDbEntity
  8
1
  6
CONTINUOUS
 62
     2
100
AcDbBlockReference
  2
ARROW1
 10
6.910917
 20
0.065833
 30
0.0
 41
0.21094
 42
0.21094
 50
270.0
210
0.0
220
0.0
230
1.0
  0
INSERT
  5
24F
100
AcDbEntity
  8
1
  6
CONTINUOUS
 62
     2
100
AcDbBlockReference
  2
ARROW1
 10
7.122333
 20
0.193167
 30
0.0
 41
0.21094
 42
0.21094
 50
90.0
210
0.0
220
0.0
230
1.0
  0
INSERT
  5
250
100
AcDbEntity
  8
1
  6
CONTINUOUS
 62
     2
100
AcDbBlockReference
  2
ARROW1
 10
6.804083
 20
0.167833
 30
0.0
 41
0.21094
 42
0.21094
 50
180.0
210
0.0
220
0.0
230
1.0
  0
ARC
  5
251
100
AcDbEntity
  8
1
  6
CONTINUOUS
 62
   131
100
AcDbCircle
 10
7.042221
 20
0.237522
 30
0.0
 40
0.097046
210
0.0
220
0.0
230
1.0
100
AcDbArc
 50
259.027894
 51
325.639781
  0
LINE
  5
252
100
AcDbEntity
  8
1
  6
CONTINUOUS
 62
   151
100
AcDbLine
 10
7.204917
 20
-0.411583
 30
0.0
 11
7.293
 21
-0.411583
 31
0.0
  0
INSERT
  5
253
100
AcDbEntity
  8
1
  6
CONTINUOUS
 62
     2
100
AcDbBlockReference
  2
ARROW1
 10
6.930583
 20
-0.491167
 30
0.0
 41
0.21094
 42
0.21094
 50
90.0
210
0.0
220
0.0
230
1.0
  0
INSERT
  5
254
100
AcDbEntity
  8
1
  6
CONTINUOUS
 62
     2
100
AcDbBlockReference
  2
ARROW1
 10
7.289667
 20
-0.520667
 30
0.0
 41
0.21094
 42
0.21094
210
0.0
220
0.0
230
1.0
  0
INSERT
  5
255
100
AcDbEntity
  8
1
  6
CONTINUOUS
 62
     2
100
AcDbBlockReference
  2
ARROW1
 10
6.807833
 20
-0.707833
 30
0.0
 41
0.21094
 42
0.21094
 50
270.0
210
0.0
220
0.0
230
1.0
  0
INSERT
  5
256
100
AcDbEntity
  8
1
  6
CONTINUOUS
 62
     2
100
AcDbBlockReference
  2
ARROW1
 10
7.193083
 20
-0.704
 30
0.0
 41
0.21094
 42
0.21094
 50
270.0
210
0.0
220
0.0
230
1.0
  0
INSERT
  5
257
100
AcDbEntity
  8
1
  6
CONTINUOUS
 62
     2
100
AcDbBlockReference
  2
ARROW1
 10
7.265833
 20
-0.631083
 30
0.0
 41
0.21094
 42
0.21094
 50
90.0
210
0.0
220
0.0
230
1.0
  0
INSERT
  5
258
100
AcDbEntity
  8
1
  6
CONTINUOUS
 62
     2
100
AcDbBlockReference
  2
ARROW1
 10
6.73775
 20
-0.57325
 30
0.0
 41
0.21094
 42
0.21094
 50
180.0
210
0.0
220
0.0
230
1.0
  0
INSERT
  5
259
100
AcDbEntity
  8
1
  6
CONTINUOUS
 62
     2
100
AcDbBlockReference
  2
ARROW1
 10
6.819583
 20
-0.429167
 30
0.0
 41
0.21094
 42
0.21094
210
0.0
220
0.0
230
1.0
  0
INSERT
  5
25A
100
AcDbEntity
  8
1
  6
CONTINUOUS
 62
     2
100
AcDbBlockReference
  2
ARROW1
 10
6.927333
 20
-0.625667
 30
0.0
 41
0.21094
 42
0.21094
 50
270.0
210
0.0
220
0.0
230
1.0
  0
TEXT
  5
25B
100
AcDbEntity
  8
1
  6
CONTINUOUS
 62
   211
100
AcDbText
 10
9.31775
 20
-0.303667
 30
0.0
 40
0.008333
  1
TOTAL
  7
TXT
210
0.0
220
0.0
230
1.0
100
AcDbText
  0
TEXT
  5
25C
100
AcDbEntity
  8
1
  6
CONTINUOUS
 62
   211
100
AcDbText
 10
9.330917
 20
-0.318083
 30
0.0
 40
0.008333
  1
LF
  7
TXT
210
0.0
220
0.0
230
1.0
100
AcDbText
  0
INSERT
  5
25D
100
AcDbEntity
  8
1
  6
CONTINUOUS
 62
     2
100
AcDbBlockReference
  2
ARROW1
 10
7.811583
 20
-0.73975
 30
0.0
 41
0.21094
 42
0.21094
 50
180.0
210
0.0
220
0.0
230
1.0
  0
INSERT
  5
25E
100
AcDbEntity
  8
1
  6
CONTINUOUS
 62
     2
100
AcDbBlockReference
  2
ARROW1
 10
7.943833
 20
-0.738583
 30
0.0
 41
0.21094
 42
0.21094
210
0.0
220
0.0
230
1.0
  0
ARC
  5
25F
100
AcDbEntity
  8
1
  6
CONTINUOUS
 62
   131
100
AcDbCircle
 10
7.824451
 20
-0.789462
 30
0.0
 40
0.049773
210
0.0
220
0.0
230
1.0
100
AcDbArc
 50
29.548103
 51
92.822297
  0
ARC
  5
260
100
AcDbEntity
  8
1
  6
CONTINUOUS
 62
   131
100
AcDbCircle
 10
7.932011
 20
-0.814772
 30
0.0
 40
0.076201
210
0.0
220
0.0
230
1.0
100
AcDbArc
 50
88.943172
 51
139.384925
  0
LINE
  5
261
100
AcDbEntity
  8
1
  6
CONTINUOUS
 62
   131
100
AcDbLine
 10
6.688083
 20
0.256833
 30
0.0
 11
6.708917
 21
0.256833
 31
0.0
  0
LINE
  5
262
100
AcDbEntity
  8
1
  6
CONTINUOUS
 62
   131
100
AcDbLine
 10
7.330167
 20
0.222167
 30
0.0
 11
7.330167
 21
0.243
 31
0.0
  0
LINE
  5
263
100
AcDbEntity
  8
1
  6
CONTINUOUS
 62
   131
100
AcDbLine
 10
7.312167
 20
0.256083
 30
0.0
 11
7.327917
 21
0.256083
 31
0.0
  0
LINE
  5
264
100
AcDbEntity
  8
1
  6
CONTINUOUS
 62
   131
100
AcDbLine
 10
7.330167
 20
0.014583
 30
0.0
 11
7.330167
 21
0.035417
 31
0.0
  0
LINE
  5
265
100
AcDbEntity
  8
1
  6
CONTINUOUS
 62
   131
100
AcDbLine
 10
6.572167
 20
-0.3795
 30
0.0
 11
6.572167
 21
-0.358667
 31
0.0
  0
LINE
  5
266
100
AcDbEntity
  8
1
  6
CONTINUOUS
 62
   131
100
AcDbLine
 10
6.687917
 20
-0.362917
 30
0.0
 11
6.70875
 21
-0.362917
 31
0.0
  0
LINE
  5
267
100
AcDbEntity
  8
1
  6
CONTINUOUS
 62
   131
100
AcDbLine
 10
6.7465
 20
-0.362917
 30
0.0
 11
6.767333
 21
-0.362917
 31
0.0
  0
LINE
  5
268
100
AcDbEntity
  8
1
  6
CONTINUOUS
 62
   131
100
AcDbLine
 10
7.262083
 20
-0.361
 30
0.0
 11
7.293
 21
-0.361
 31
0.0
  0
LINE
  5
269
100
AcDbEntity
  8
1
  6
CONTINUOUS
 62
   131
100
AcDbLine
 10
6.60475
 20
-0.6875
 30
0.0
 11
6.625583
 21
-0.6875
 31
0.0
  0
LINE
  5
26A
100
AcDbEntity
  8
1
  6
CONTINUOUS
 62
   131
100
AcDbLine
 10
6.66325
 20
-0.6875
 30
0.0
 11
6.684083
 21
-0.6875
 31
0.0
  0
LINE
  5
26B
100
AcDbEntity
  8
1
  6
CONTINUOUS
 62
   131
100
AcDbLine
 10
7.337083
 20
-0.6885
 30
0.0
 11
7.357917
 21
-0.6885
 31
0.0
  0
LINE
  5
26C
100
AcDbEntity
  8
1
  6
CONTINUOUS
 62
   131
100
AcDbLine
 10
7.421167
 20
-0.712917
 30
0.0
 11
7.421167
 21
-0.677583
 31
0.0
  0
LINE
  5
26D
100
AcDbEntity
  8
1
  6
CONTINUOUS
 62
   131
100
AcDbLine
 10
6.572083
 20
-0.753667
 30
0.0
 11
6.572083
 21
-0.732833
 31
0.0
  0
LINE
  5
26E
100
AcDbEntity
  8
1
  6
CONTINUOUS
 62
   131
100
AcDbLine
 10
6.60425
 20
-1.014833
 30
0.0
 11
6.625083
 21
-1.014833
 31
0.0
  0
LINE
  5
26F
100
AcDbEntity
  8
1
  6
CONTINUOUS
 62
   131
100
AcDbLine
 10
6.66175
 20
-1.015583
 30
0.0
 11
6.682583
 21
-1.015583
 31
0.0
  0
LINE
  5
270
100
AcDbEntity
  8
1
  6
CONTINUOUS
 62
   131
100
AcDbLine
 10
7.341083
 20
-1.01525
 30
0.0
 11
7.361917
 21
-1.01525
 31
0.0
  0
LINE
  5
271
100
AcDbEntity
  8
1
  6
CONTINUOUS
 62
   131
100
AcDbLine
 10
7.393583
 20
-1.0165
 30
0.0
 11
7.414417
 21
-1.0165
 31
0.0
  0
LINE
  5
272
100
AcDbEntity
  8
1
  6
CONTINUOUS
 62
   131
100
AcDbLine
 10
7.421167
 20
-0.83275
 30
0.0
 11
7.421167
 21
-0.81625
 31
0.0
  0
LINE
  5
273
100
AcDbEntity
  8
1
  6
CONTINUOUS
 62
   131
100
AcDbLine
 10
7.421167
 20
-0.775
 30
0.0
 11
7.421167
 21
-0.765167
 31
0.0
  0
LINE
  5
274
100
AcDbEntity
  8
1
  6
CONTINUOUS
 62
   131
100
AcDbLine
 10
7.421083
 20
-0.7605
 30
0.0
 11
7.421083
 21
-0.750583
 31
0.0
  0
LINE
  5
275
100
AcDbEntity
  8
1
  6
CONTINUOUS
 62
   131
100
AcDbLine
 10
7.762667
 20
-0.364083
 30
0.0
 11
7.7835
 21
-0.364083
 31
0.0
  0
LINE
  5
276
100
AcDbEntity
  8
1
  6
CONTINUOUS
 62
   131
100
AcDbLine
 10
7.97
 20
-0.364167
 30
0.0
 11
7.990833
 21
-0.364167
 31
0.0
  0
LINE
  5
277
100
AcDbEntity
  8
1
  6
CONTINUOUS
 62
   131
100
AcDbLine
 10
8.06375
 20
-0.379333
 30
0.0
 11
8.06375
 21
-0.3585
 31
0.0
  0
LINE
  5
278
100
AcDbEntity
  8
1
  6
CONTINUOUS
 62
   131
100
AcDbLine
 10
8.06425
 20
-0.75375
 30
0.0
 11
8.06425
 21
-0.732917
 31
0.0
  0
TEXT
  5
279
100
AcDbEntity
  8
1
  6
CONTINUOUS
 62
   253
100
AcDbText
 10
8.83125
 20
-0.228167
 30
0.0
 40
0.00625
  1
*SUPERSTRUCTURE WIDTH=(PERPENDICULAR WIDTH OF SUPERSTRUCTURE
  7
TXT
210
0.0
220
0.0
230
1.0
100
AcDbText
  0
TEXT
  5
27A
100
AcDbEntity
  8
1
  6
CONTINUOUS
 62
   253
100
AcDbText
 10
8.839583
 20
-0.244
 30
0.0
 40
0.00625
  1
INCLUDING SIDEWALKS)/COS O
  7
TXT
210
0.0
220
0.0
230
1.0
100
AcDbText
  0
TEXT
  5
27B
100
AcDbEntity
  8
1
  6
CONTINUOUS
 62
   110
100
AcDbText
 10
7.32675
 20
-0.002333
 30
0.0
 40
0.008333
  1
3" CL
 50
90.0
  7
TXT
210
0.0
220
0.0
230
1.0
100
AcDbText
  0
TEXT
  5
27C
100
AcDbEntity
  8
1
  6
CONTINUOUS
 62
   110
100
AcDbText
 10
7.325583
 20
0.220333
 30
0.0
 40
0.008333
  1
3" CL
 50
90.0
  7
TXT
210
0.0
220
0.0
230
1.0
100
AcDbText
  0
TEXT
  5
27D
100
AcDbEntity
  8
1
  6
CONTINUOUS
 62
   110
100
AcDbText
 10
6.6715
 20
0.260917
 30
0.0
 40
0.008333
  1
3" CL
  7
TXT
210
0.0
220
0.0
230
1.0
100
AcDbText
  0
TEXT
  5
27E
100
AcDbEntity
  8
1
  6
CONTINUOUS
 62
   110
100
AcDbText
 10
7.308333
 20
0.260917
 30
0.0
 40
0.008333
  1
3" CL
  7
TXT
210
0.0
220
0.0
230
1.0
100
AcDbText
  0
INSERT
  5
27F
100
AcDbEntity
  8
1
  6
CONTINUOUS
 62
     2
100
AcDbBlockReference
  2
ARROW1
 10
6.937917
 20
0.131
 30
0.0
 41
0.210939
 42
0.210939
 50
209.999506
210
0.0
220
0.0
230
1.0
  0
ARC
  5
280
100
AcDbEntity
  8
1
  6
CONTINUOUS
 62
   131
100
AcDbCircle
 10
6.976028
 20
0.078181
 30
0.0
 40
0.06514
210
0.0
220
0.0
230
1.0
100
AcDbArc
 50
118.004997
 51
181.698581
  0
ARC
  5
281
100
AcDbEntity
  8
1
  6
CONTINUOUS
 62
   131
100
AcDbCircle
 10
6.984343
 20
0.031275
 30
0.0
 40
0.111475
210
0.0
220
0.0
230
1.0
100
AcDbArc
 50
90.133592
 51
109.662931
  0
TEXT
  5
282
100
AcDbEntity
  8
1
  6
CONTINUOUS
 62
   110
100
AcDbText
 10
6.760667
 20
0.169083
 30
0.0
 40
0.008333
  1
P503
  7
TXT
210
0.0
220
0.0
230
1.0
100
AcDbText
  0
TEXT
  5
283
100
AcDbEntity
  8
1
  6
CONTINUOUS
 62
   110
100
AcDbText
 10
6.827333
 20
0.136917
 30
0.0
 40
0.008333
  1
P509
  7
TXT
210
0.0
220
0.0
230
1.0
100
AcDbText
  0
INSERT
  5
284
100
AcDbEntity
  8
1
  6
CONTINUOUS
 62
     2
100
AcDbBlockReference
  2
ARROW1
 10
6.737667
 20
0.15475
 30
0.0
 41
0.21094
 42
0.21094
 50
180.0
210
0.0
220
0.0
230
1.0
  0
LINE
  5
285
100
AcDbEntity
  8
1
  6
CONTINUOUS
 62
     1
100
AcDbLine
 10
7.161833
 20
0.19525
 30
0.0
 11
7.161833
 21
0.063917
 31
0.0
  0
POLYLINE
  5
286
100
AcDbEntity
  8
1
  6
CONTINUOUS
 62
   230
100
AcDb2dPolyline
 66
     1
 10
0.0
 20
0.0
 30
0.0
  0
VERTEX
  5
287
100
AcDbEntity
  8
1
  6
CONTINUOUS
 62
   230
100
AcDbVertex
100
AcDb2dVertex
 10
6.74
 20
0.06925
 30
0.0
  0
VERTEX
  5
288
100
AcDbEntity
  8
1
  6
CONTINUOUS
 62
   230
100
AcDbVertex
100
AcDb2dVertex
 10
6.7875
 20
0.06925
 30
0.0
  0
VERTEX
  5
289
100
AcDbEntity
  8
1
  6
CONTINUOUS
 62
   230
100
AcDbVertex
100
AcDb2dVertex
 10
6.79475
 20
0.065083
 30
0.0
  0
VERTEX
  5
28A
100
AcDbEntity
  8
1
  6
CONTINUOUS
 62
   230
100
AcDbVertex
100
AcDb2dVertex
 10
7.168917
 20
0.065083
 30
0.0
  0
SEQEND
  5
28B
100
AcDbEntity
  8
1
  6
CONTINUOUS
 62
   230
  0
LINE
  5
28C
100
AcDbEntity
  8
1
  6
CONTINUOUS
 62
   230
100
AcDbLine
 10
6.73925
 20
0.130833
 30
0.0
 11
7.159583
 21
0.130833
 31
0.0
  0
LINE
  5
28D
100
AcDbEntity
  8
1
  6
CONTINUOUS
 62
   230
100
AcDbLine
 10
7.159583
 20
0.130833
 30
0.0
 11
7.280917
 21
0.130833
 31
0.0
  0
POLYLINE
  5
28E
100
AcDbEntity
  8
1
  6
CONTINUOUS
 62
   230
100
AcDb2dPolyline
 66
     1
 10
0.0
 20
0.0
 30
0.0
  0
VERTEX
  5
28F
100
AcDbEntity
  8
1
  6
CONTINUOUS
 62
   230
100
AcDbVertex
100
AcDb2dVertex
 10
6.740583
 20
0.19
 30
0.0
  0
VERTEX
  5
290
100
AcDbEntity
  8
1
  6
CONTINUOUS
 62
   230
100
AcDbVertex
100
AcDb2dVertex
 10
6.7865
 20
0.19
 30
0.0
  0
VERTEX
  5
291
100
AcDbEntity
  8
1
  6
CONTINUOUS
 62
   230
100
AcDbVertex
100
AcDb2dVertex
 10
6.788333
 20
0.19
 30
0.0
  0
VERTEX
  5
292
100
AcDbEntity
  8
1
  6
CONTINUOUS
 62
   230
100
AcDbVertex
100
AcDb2dVertex
 10
6.795583
 20
0.194167
 30
0.0
  0
VERTEX
  5
293
100
AcDbEntity
  8
1
  6
CONTINUOUS
 62
   230
100
AcDbVertex
100
AcDb2dVertex
 10
7.16075
 20
0.194167
 30
0.0
  0
SEQEND
  5
294
100
AcDbEntity
  8
1
  6
CONTINUOUS
 62
   230
  0
TEXT
  5
295
100
AcDbEntity
  8
1
  6
CONTINUOUS
 62
   110
100
AcDbText
 10
6.6715
 20
-0.357417
 30
0.0
 40
0.008333
  1
3" CL
  7
TXT
210
0.0
220
0.0
230
1.0
100
AcDbText
  0
ARC
  5
296
100
AcDbEntity
  8
1
  6
CONTINUOUS
 62
   131
100
AcDbCircle
 10
6.81104
 20
0.141223
 30
0.0
 40
0.026834
210
0.0
220
0.0
230
1.0
100
AcDbArc
 50
11.522711
 51
82.591286
  0
ARC
  5
297
100
AcDbEntity
  8
1
  6
CONTINUOUS
 62
   131
100
AcDbCircle
 10
6.739955
 20
0.199437
 30
0.0
 40
0.04542
210
0.0
220
0.0
230
1.0
100
AcDbArc
 50
280.309297
 51
314.57625
  0
ARC
  5
298
100
AcDbEntity
  8
1
  6
CONTINUOUS
 62
   131
100
AcDbCircle
 10
6.776921
 20
0.086135
 30
0.0
 40
0.019595
210
0.0
220
0.0
230
1.0
100
AcDbArc
 50
354.236147
 51
76.234736
  0
TEXT
  5
299
100
AcDbEntity
  8
1
  6
CONTINUOUS
 62
   110
100
AcDbText
 10
6.592667
 20
-0.683917
 30
0.0
 40
0.008333
  1
3" CL
  7
TXT
210
0.0
220
0.0
230
1.0
100
AcDbText
  0
TEXT
  5
29A
100
AcDbEntity
  8
1
  6
CONTINUOUS
 62
   110
100
AcDbText
 10
7.320583
 20
-0.681833
 30
0.0
 40
0.008333
  1
3" CL
  7
TXT
210
0.0
220
0.0
230
1.0
100
AcDbText
  0
TEXT
  5
29B
100
AcDbEntity
  8
1
  6
CONTINUOUS
 62
   110
100
AcDbText
 10
7.420833
 20
-1.019083
 30
0.0
 40
0.008333
  1
3" CL
  7
TXT
210
0.0
220
0.0
230
1.0
100
AcDbText
  0
TEXT
  5
29C
100
AcDbEntity
  8
1
  6
CONTINUOUS
 62
   110
100
AcDbText
 10
6.567083
 20
-1.017917
 30
0.0
 40
0.008333
  1
3" CL
  7
TXT
210
0.0
220
0.0
230
1.0
100
AcDbText
  0
TEXT
  5
29D
100
AcDbEntity
  8
1
  6
CONTINUOUS
 62
   110
100
AcDbText
 10
7.4265
 20
-0.67125
 30
0.0
 40
0.008333
  1
3" CL
 50
90.0
  7
TXT
210
0.0
220
0.0
230
1.0
100
AcDbText
  0
TEXT
  5
29E
100
AcDbEntity
  8
1
  6
CONTINUOUS
 62
   110
100
AcDbText
 10
7.426417
 20
-0.862167
 30
0.0
 40
0.008333
  1
3" CL
 50
90.0
  7
TXT
210
0.0
220
0.0
230
1.0
100
AcDbText
  0
TEXT
  5
29F
100
AcDbEntity
  8
1
  6
CONTINUOUS
 62
   110
100
AcDbText
 10
6.56575
 20
-0.756583
 30
0.0
 40
0.008333
  1
3" CL
 50
90.0
  7
TXT
210
0.0
220
0.0
230
1.0
100
AcDbText
  0
TEXT
  5
2A0
100
AcDbEntity
  8
1
  6
CONTINUOUS
 62
   110
100
AcDbText
 10
6.56475
 20
-0.385167
 30
0.0
 40
0.008333
  1
3" CL
 50
90.0
  7
TXT
210
0.0
220
0.0
230
1.0
100
AcDbText
  0
TEXT
  5
2A1
100
AcDbEntity
  8
1
  6
CONTINUOUS
 62
   110
100
AcDbText
 10
7.23675
 20
-0.554333
 30
0.0
 40
0.008333
  1
P501
  7
TXT
210
0.0
220
0.0
230
1.0
100
AcDbText
  0
TEXT
  5
2A2
100
AcDbEntity
  8
1
  6
CONTINUOUS
 62
   110
100
AcDbText
 10
7.15025
 20
-0.67675
 30
0.0
 40
0.008333
  1
P502
  7
TXT
210
0.0
220
0.0
230
1.0
100
AcDbText
  0
TEXT
  5
2A3
100
AcDbEntity
  8
1
  6
CONTINUOUS
 62
   110
100
AcDbText
 10
7.218333
 20
-0.663
 30
0.0
 40
0.008333
  1
P503
  7
TXT
210
0.0
220
0.0
230
1.0
100
AcDbText
  0
TEXT
  5
2A4
100
AcDbEntity
  8
1
  6
CONTINUOUS
 62
   110
100
AcDbText
 10
6.76925
 20
-0.459917
 30
0.0
 40
0.008333
  1
P509
  7
TXT
210
0.0
220
0.0
230
1.0
100
AcDbText
  0
INSERT
  5
2A5
100
AcDbEntity
  8
1
  6
CONTINUOUS
 62
     2
100
AcDbBlockReference
  2
ARROW1
 10
7.208667
 20
-0.573917
 30
0.0
 41
0.21094
 42
0.21094
 50
180.0
210
0.0
220
0.0
230
1.0
  0
INSERT
  5
2A6
100
AcDbEntity
  8
1
  6
CONTINUOUS
 62
     2
100
AcDbBlockReference
  2
ARROW1
 10
6.819917
 20
-0.57325
 30
0.0
 41
0.21094
 42
0.21094
210
0.0
220
0.0
230
1.0
  0
ARC
  5
2A7
100
AcDbEntity
  8
1
  6
CONTINUOUS
 62
   131
100
AcDbCircle
 10
6.809262
 20
-0.455465
 30
0.0
 40
0.026298
210
0.0
220
0.0
230
1.0
100
AcDbArc
 50
90.208658
 51
165.956308
  0
ARC
  5
2A8
100
AcDbEntity
  8
1
  6
CONTINUOUS
 62
   131
100
AcDbCircle
 10
6.742944
 20
-0.540702
 30
0.0
 40
0.032964
210
0.0
220
0.0
230
1.0
100
AcDbArc
 50
279.1157
 51
349.280478
  0
ARC
  5
2A9
100
AcDbEntity
  8
1
  6
CONTINUOUS
 62
   131
100
AcDbCircle
 10
6.820098
 20
-0.532987
 30
0.0
 40
0.041634
210
0.0
220
0.0
230
1.0
100
AcDbArc
 50
199.424553
 51
255.253592
  0
INSERT
  5
2AA
100
AcDbEntity
  8
1
  6
CONTINUOUS
 62
     2
100
AcDbBlockReference
  2
ARROW1
 10
6.747333
 20
-0.630333
 30
0.0
 41
0.21094
 42
0.21094
 50
90.0
210
0.0
220
0.0
230
1.0
  0
ARC
  5
2AB
100
AcDbEntity
  8
1
  6
CONTINUOUS
 62
   131
100
AcDbCircle
 10
6.78053
 20
-0.641486
 30
0.0
 40
0.033205
210
0.0
220
0.0
230
1.0
100
AcDbArc
 50
178.730097
 51
231.809181
  0
ARC
  5
2AC
100
AcDbEntity
  8
1
  6
CONTINUOUS
 62
   131
100
AcDbCircle
 10
6.764446
 20
-0.703094
 30
0.0
 40
0.043757
210
0.0
220
0.0
230
1.0
100
AcDbArc
 50
7.455283
 51
49.981756
  0
ARC
  5
2AD
100
AcDbEntity
  8
1
  6
CONTINUOUS
 62
   253
100
AcDbCircle
 10
6.863561
 20
-0.483013
 30
0.0
 40
0.069548
210
0.0
220
0.0
230
1.0
100
AcDbArc
 50
301.5972
 51
344.512869
  0
ARC
  5
2AE
100
AcDbEntity
  8
1
  6
CONTINUOUS
 62
   131
100
AcDbCircle
 10
6.703506
 20
-0.658161
 30
0.0
 40
0.227904
210
0.0
220
0.0
230
1.0
100
AcDbArc
 50
10.852703
 51
30.23025
  0
ARC
  5
2AF
100
AcDbEntity
  8
1
  6
CONTINUOUS
 62
   131
100
AcDbCircle
 10
7.286942
 20
-0.559005
 30
0.0
 40
0.039102
210
0.0
220
0.0
230
1.0
100
AcDbArc
 50
101.344969
 51
157.434853
  0
ARC
  5
2B0
100
AcDbEntity
  8
1
  6
CONTINUOUS
 62
   131
100
AcDbCircle
 10
7.221703
 20
-0.54521
 30
0.0
 40
0.028826
210
0.0
220
0.0
230
1.0
100
AcDbArc
 50
264.785483
 51
338.375169
  0
ARC
  5
2B1
100
AcDbEntity
  8
1
  6
CONTINUOUS
 62
   131
100
AcDbCircle
 10
7.245697
 20
-0.638231
 30
0.0
 40
0.0204
210
0.0
220
0.0
230
1.0
100
AcDbArc
 50
279.791508
 51
350.778594
  0
ARC
  5
2B2
100
AcDbEntity
  8
1
  6
CONTINUOUS
 62
   131
100
AcDbCircle
 10
7.17517
 20
-0.691928
 30
0.0
 40
0.017989
210
0.0
220
0.0
230
1.0
100
AcDbArc
 50
354.721794
 51
65.955111
  0
TEXT
  5
2B3
100
AcDbEntity
  8
1
  6
CONTINUOUS
 62
   110
100
AcDbText
 10
6.57
 20
-0.659167
 30
0.0
 40
0.008333
  1
EQUAL SPA. P502 & P503 BARS
 50
90.0
  7
TXT
210
0.0
220
0.0
230
1.0
100
AcDbText
  0
TEXT
  5
2B4
100
AcDbEntity
  8
1
  6
CONTINUOUS
 62
   110
100
AcDbText
 10
6.584417
 20
-0.608333
 30
0.0
 40
0.008333
  1
@ 1'-0" C/C MAX.
 50
90.0
  7
TXT
210
0.0
220
0.0
230
1.0
100
AcDbText
  0
TEXT
  5
2B5
100
AcDbEntity
  8
1
  6
CONTINUOUS
 62
   110
100
AcDbText
 10
7.86325
 20
-0.448833
 30
0.0
 40
0.008333
  1
P509
  7
TXT
210
0.0
220
0.0
230
1.0
100
AcDbText
  0
TEXT
  5
2B6
100
AcDbEntity
  8
1
  6
CONTINUOUS
 62
   110
100
AcDbText
 10
7.835
 20
-0.659917
 30
0.0
 40
0.008333
  1
3"X6" KEY
  7
TXT
210
0.0
220
0.0
230
1.0
100
AcDbText
  0
TEXT
  5
2B7
100
AcDbEntity
  8
1
  6
CONTINUOUS
 62
   110
100
AcDbText
 10
8.058333
 20
-0.364083
 30
0.0
 40
0.008333
  1
3" CL
 50
90.0
  7
TXT
210
0.0
220
0.0
230
1.0
100
AcDbText
  0
TEXT
  5
2B8
100
AcDbEntity
  8
1
  6
CONTINUOUS
 62
   110
100
AcDbText
 10
7.747417
 20
-0.357417
 30
0.0
 40
0.008333
  1
3" CL
  7
TXT
210
0.0
220
0.0
230
1.0
100
AcDbText
  0
TEXT
  5
2B9
100
AcDbEntity
  8
1
  6
CONTINUOUS
 62
   110
100
AcDbText
 10
7.978
 20
-0.357417
 30
0.0
 40
0.008333
  1
3" CL
  7
TXT
210
0.0
220
0.0
230
1.0
100
AcDbText
  0
TEXT
  5
2BA
100
AcDbEntity
  8
1
  6
CONTINUOUS
 62
   110
100
AcDbText
 10
8.068167
 20
-0.673833
 30
0.0
 40
0.008333
  1
3" CL
 50
90.0
  7
TXT
210
0.0
220
0.0
230
1.0
100
AcDbText
  0
ARC
  5
2BB
100
AcDbEntity
  8
1
  6
CONTINUOUS
 62
   131
100
AcDbCircle
 10
7.880075
 20
-0.418342
 30
0.0
 40
0.029009
210
0.0
220
0.0
230
1.0
100
AcDbArc
 50
301.154753
 51
0.510017
  0
ARC
  5
2BC
100
AcDbEntity
  8
1
  6
CONTINUOUS
 62
   131
100
AcDbCircle
 10
7.830047
 20
-0.550077
 30
0.0
 40
0.060285
210
0.0
220
0.0
230
1.0
100
AcDbArc
 50
40.823267
 51
96.394214
  0
ARC
  5
2BD
100
AcDbEntity
  8
1
  6
CONTINUOUS
 62
   131
100
AcDbCircle
 10
7.928556
 20
-0.547556
 30
0.0
 40
0.062542
210
0.0
220
0.0
230
1.0
100
AcDbArc
 50
87.301889
 51
144.326164
  0
ARC
  5
2BE
100
AcDbEntity
  8
1
  6
CONTINUOUS
 62
   131
100
AcDbCircle
 10
7.827212
 20
-0.519893
 30
0.0
 40
0.06636
210
0.0
220
0.0
230
1.0
100
AcDbArc
 50
275.00335
 51
316.585661
  0
ARC
  5
2BF
100
AcDbEntity
  8
1
  6
CONTINUOUS
 62
   131
100
AcDbCircle
 10
7.924964
 20
-0.526435
 30
0.0
 40
0.061066
210
0.0
220
0.0
230
1.0
100
AcDbArc
 50
219.974375
 51
266.983194
  0
ARC
  5
2C0
100
AcDbEntity
  8
1
  6
CONTINUOUS
 62
   131
100
AcDbCircle
 10
7.907995
 20
-0.684318
 30
0.0
 40
0.02177
210
0.0
220
0.0
230
1.0
100
AcDbArc
 50
271.109372
 51
101.692631
  0
LINE
  5
2C1
100
AcDbEntity
  8
1
  6
CONTINUOUS
 62
   131
100
AcDbLine
 10
8.06425
 20
-0.69825
 30
0.0
 11
8.06425
 21
-0.677417
 31
0.0
  0
LINE
  5
2C2
100
AcDbEntity
  8
1
  6
CONTINUOUS
 62
   131
100
AcDbLine
 10
8.06425
 20
-0.437833
 30
0.0
 11
8.06425
 21
-0.417
 31
0.0
  0
TEXT
  5
2C3
100
AcDbEntity
  8
1
  6
CONTINUOUS
 62
   253
100
AcDbText
 10
9.085167
 20
0.2115
 30
0.0
 40
0.007083
  1
*SUPERSTR. WID. ROUND. 
  7
TXT
210
0.0
220
0.0
230
1.0
100
AcDbText
  0
TEXT
  5
2C4
100
AcDbEntity
  8
1
  6
CONTINUOUS
 62
   253
100
AcDbText
 10
9.085917
 20
0.194167
 30
0.0
 40
0.007083
  1
TO NEAREST FT. + 3'-0"
  7
TXT
210
0.0
220
0.0
230
1.0
100
AcDbText
  0
TEXT
  5
2C5
100
AcDbEntity
  8
1
  6
CONTINUOUS
 62
   253
100
AcDbText
 10
9.09225
 20
0.161083
 30
0.0
 40
0.008333
  1
STEM LEN. + 3'-0"
  7
TXT
210
0.0
220
0.0
230
1.0
100
AcDbText
  0
TEXT
  5
2C6
100
AcDbEntity
  8
1
  6
CONTINUOUS
 62
   253
100
AcDbText
 10
8.908
 20
0.028083
 30
0.0
 40
0.008333
  1
& P503 BARS
  7
TXT
210
0.0
220
0.0
230
1.0
100
AcDbText
  0
LINE
  5
2C7
100
AcDbEntity
  8
1
  6
CONTINUOUS
 62
   253
100
AcDbLine
 10
8.983667
 20
-0.24075
 30
0.0
 11
8.98775
 21
-0.24075
 31
0.0
  0
TEXT
  5
2C8
100
AcDbEntity
  8
1
  6
CONTINUOUS
 62
   253
100
AcDbText
 10
8.908167
 20
-0.38775
 30
0.0
 40
0.008333
  1
(A+1)*2+1
  7
TXT
210
0.0
220
0.0
230
1.0
100
AcDbText
  0
LINE
  5
2C9
100
AcDbEntity
  8
1
  6
CONTINUOUS
 62
   253
100
AcDbLine
 10
9.110583
 20
-0.407083
 30
0.0
 11
9.186583
 21
-0.407083
 31
0.0
  0
LINE
  5
2CA
100
AcDbEntity
  8
1
  6
CONTINUOUS
 62
   253
100
AcDbLine
 10
8.74225
 20
-0.76125
 30
0.0
 11
9.36725
 21
-0.76125
 31
0.0
  0
TEXT
  5
2CB
100
AcDbEntity
  8
1
  6
CONTINUOUS
 62
   253
100
AcDbText
 10
8.752917
 20
-0.477333
 30
0.0
 40
0.008333
  1
P509
  7
TXT
210
0.0
220
0.0
230
1.0
100
AcDbText
  0
TEXT
  5
2CC
100
AcDbEntity
  8
1
  6
CONTINUOUS
 62
   253
100
AcDbText
 10
8.837
 20
-0.479167
 30
0.0
 40
0.008333
  1
BENT
  7
TXT
210
0.0
220
0.0
230
1.0
100
AcDbText
  0
TEXT
  5
2CD
100
AcDbEntity
  8
1
  6
CONTINUOUS
 62
   253
100
AcDbText
 10
8.93075
 20
-0.479083
 30
0.0
 40
0.008333
  1
B
  7
TXT
210
0.0
220
0.0
230
1.0
100
AcDbText
  0
LINE
  5
2CE
100
AcDbEntity
  8
1
  6
CONTINUOUS
 62
   253
100
AcDbLine
 10
9.11
 20
-0.476083
 30
0.0
 11
9.186
 21
-0.476083
 31
0.0
  0
TEXT
  5
2CF
100
AcDbEntity
  8
1
  6
CONTINUOUS
 62
   253
100
AcDbText
 10
9.231917
 20
-0.47875
 30
0.0
 40
0.008333
  1
5'-10"
  7
TXT
210
0.0
220
0.0
230
1.0
100
AcDbText
  0
TEXT
  5
2D0
100
AcDbEntity
  8
1
  6
CONTINUOUS
 62
   211
100
AcDbText
 10
8.269667
 20
-0.042417
 30
0.0
 40
0.008333
  1
BAR LAP (MIN.)
  7
TXT
210
0.0
220
0.0
230
1.0
100
AcDbText
  0
TEXT
  5
2D1
100
AcDbEntity
  8
1
  6
CONTINUOUS
 62
   253
100
AcDbText
 10
8.298083
 20
-0.085083
 30
0.0
 40
0.008333
  1
1'-7"
  7
TXT
210
0.0
220
0.0
230
1.0
100
AcDbText
  0
TEXT
  5
2D2
100
AcDbEntity
  8
1
  6
CONTINUOUS
 62
   110
100
AcDbText
 10
8.232583
 20
0.121417
 30
0.0
 40
0.008333
  1
P503 & P509
  7
TXT
210
0.0
220
0.0
230
1.0
100
AcDbText
  0
LINE
  5
2D3
100
AcDbEntity
  8
1
  6
CONTINUOUS
 62
   151
100
AcDbLine
 10
7.205
 20
-0.494917
 30
0.0
 11
7.290083
 21
-0.494917
 31
0.0
  0
LINE
  5
2D4
100
AcDbEntity
  8
1
  6
CONTINUOUS
 62
   151
100
AcDbLine
 10
7.205583
 20
-0.630333
 30
0.0
 11
7.290083
 21
-0.630333
 31
0.0
  0
LINE
  5
2D5
100
AcDbEntity
  8
1
  6
CONTINUOUS
 62
   151
100
AcDbLine
 10
7.205167
 20
-0.707167
 30
0.0
 11
7.291083
 21
-0.707167
 31
0.0
  0
LINE
  5
2D6
100
AcDbEntity
  8
1
  6
CONTINUOUS
 62
     1
100
AcDbLine
 10
6.819667
 20
-0.407083
 30
0.0
 11
6.819667
 21
-0.453417
 31
0.0
  0
LINE
  5
2D7
100
AcDbEntity
  8
1
  6
CONTINUOUS
 62
     1
100
AcDbLine
 10
6.737083
 20
-0.407083
 30
0.0
 11
6.737083
 21
-0.453417
 31
0.0
  0
LINE
  5
2D8
100
AcDbEntity
  8
1
  6
CONTINUOUS
 62
   151
100
AcDbLine
 10
6.737
 20
-0.410583
 30
0.0
 11
6.822667
 21
-0.410583
 31
0.0
  0
LINE
  5
2D9
100
AcDbEntity
  8
1
  6
CONTINUOUS
 62
   151
100
AcDbLine
 10
6.737
 20
-0.495167
 30
0.0
 11
6.822333
 21
-0.495167
 31
0.0
  0
LINE
  5
2DA
100
AcDbEntity
  8
1
  6
CONTINUOUS
 62
   151
100
AcDbLine
 10
6.737167
 20
-0.630417
 30
0.0
 11
6.823667
 21
-0.630417
 31
0.0
  0
LINE
  5
2DB
100
AcDbEntity
  8
1
  6
CONTINUOUS
 62
   151
100
AcDbLine
 10
6.738333
 20
-0.708
 30
0.0
 11
6.824333
 21
-0.708
 31
0.0
  0
TEXT
  5
2DC
100
AcDbEntity
  8
1
  6
CONTINUOUS
 62
   110
100
AcDbText
 10
6.771
 20
-1.0095
 30
0.0
 40
0.008333
  1
9"
  7
TXT
210
0.0
220
0.0
230
1.0
100
AcDbText
  0
TEXT
  5
2DD
100
AcDbEntity
  8
1
  6
CONTINUOUS
 62
   110
100
AcDbText
 10
7.244167
 20
-1.010667
 30
0.0
 40
0.008333
  1
9"
  7
TXT
210
0.0
220
0.0
230
1.0
100
AcDbText
  0
TEXT
  5
2DE
100
AcDbEntity
  8
1
  6
CONTINUOUS
 62
   110
100
AcDbText
 10
6.76875
 20
0.2605
 30
0.0
 40
0.008333
  1
9"
  7
TXT
 72
     1
 11
6.773417
 21
0.2605
 31
0.0
210
0.0
220
0.0
230
1.0
100
AcDbText
  0
TEXT
  5
2DF
100
AcDbEntity
  8
1
  6
CONTINUOUS
 62
   110
100
AcDbText
 10
7.24525
 20
0.259667
 30
0.0
 40
0.008333
  1
9"
  7
TXT
 72
     1
 11
7.249917
 21
0.259667
 31
0.0
210
0.0
220
0.0
230
1.0
100
AcDbText
  0
LINE
  5
2E0
100
AcDbEntity
  8
1
  6
CONTINUOUS
 62
   131
100
AcDbLine
 10
7.767667
 20
-1.054583
 30
0.0
 11
7.986417
 21
-1.054583
 31
0.0
  0
LINE
  5
2E1
100
AcDbEntity
  8
1
  6
CONTINUOUS
 62
   253
100
AcDbLine
 10
8.74225
 20
-0.79875
 30
0.0
 11
9.36725
 21
-0.79875
 31
0.0
  0
TEXT
  5
2E2
100
AcDbEntity
  8
1
  6
CONTINUOUS
 62
   211
100
AcDbText
 10
8.890917
 20
-0.319667
 30
0.0
 40
0.008333
  1
BARS FOR PIER
  7
TXT
210
0.0
220
0.0
230
1.0
100
AcDbText
  0
TEXT
  5
2E3
100
AcDbEntity
  8
1
  6
CONTINUOUS
 62
   211
100
AcDbText
 10
9.016
 20
-0.320417
 30
0.0
 40
0.008333
  1
IN PIER
  7
TXT
210
0.0
220
0.0
230
1.0
100
AcDbText
  0
TEXT
  5
2E4
100
AcDbEntity
  8
1
  6
CONTINUOUS
 62
   211
100
AcDbText
 10
9.224167
 20
-0.304167
 30
0.0
 40
0.008333
  1
LENGTH
  7
TXT
210
0.0
220
0.0
230
1.0
100
AcDbText
  0
TEXT
  5
2E5
100
AcDbEntity
  8
1
  6
CONTINUOUS
 62
   110
100
AcDbText
 10
7.388167
 20
-1.176
 30
0.0
 40
0.008333
  1
NOTE: ALL REBAR LAP SPLICES
  7
TXT
210
0.0
220
0.0
230
1.0
100
AcDbText
  0
TEXT
  5
2E6
100
AcDbEntity
  8
1
  6
CONTINUOUS
 62
   110
100
AcDbText
 10
7.42775
 20
-1.18875
 30
0.0
 40
0.008333
  1
SHALL BE AS PRESCRIBED IN
  7
TXT
210
0.0
220
0.0
230
1.0
100
AcDbText
  0
TEXT
  5
2E7
100
AcDbEntity
  8
1
  6
CONTINUOUS
 62
   110
100
AcDbText
 10
7.42975
 20
-1.202
 30
0.0
 40
0.008333
  1
BAR LAP TABLE
  7
TXT
210
0.0
220
0.0
230
1.0
100
AcDbText
  0
TEXT
  5
2E8
100
AcDbEntity
  8
1
  6
CONTINUOUS
 62
   110
100
AcDbText
 10
8.178
 20
0.051083
 30
0.0
 40
0.008333
  1
NOTE: ALL REBAR DIMENSIONS
  7
TXT
210
0.0
220
0.0
230
1.0
100
AcDbText
  0
TEXT
  5
2E9
100
AcDbEntity
  8
1
  6
CONTINUOUS
 62
   110
100
AcDbText
 10
8.217333
 20
0.035167
 30
0.0
 40
0.008333
  1
ARE OUT-OUT
  7
TXT
210
0.0
220
0.0
230
1.0
100
AcDbText
  0
LINE
  5
2EA
100
AcDbEntity
  8
1
  6
CONTINUOUS
 62
   131
100
AcDbLine
 10
7.018833
 20
-1.066083
 30
0.0
 11
7.38425
 21
-1.066083
 31
0.0
  0
LINE
  5
2EB
100
AcDbEntity
  8
1
  6
CONTINUOUS
 62
   131
100
AcDbLine
 10
6.637667
 20
-1.066083
 30
0.0
 11
7.020667
 21
-1.066083
 31
0.0
  0
LINE
  5
2EC
100
AcDbEntity
  8
1
  6
CONTINUOUS
 62
   253
100
AcDbLine
 10
7.209167
 20
-1.024167
 30
0.0
 11
7.209167
 21
-1.029417
 31
0.0
  0
LINE
  5
2ED
100
AcDbEntity
  8
1
  6
CONTINUOUS
 62
   253
100
AcDbLine
 10
7.291083
 20
-1.0215
 30
0.0
 11
7.291083
 21
-1.02725
 31
0.0
  0
LINE
  5
2EE
100
AcDbEntity
  8
1
  6
CONTINUOUS
 62
   131
100
AcDbLine
 10
7.385583
 20
-0.892917
 30
0.0
 11
7.385583
 21
-1.077833
 31
0.0
  0
INSERT
  5
2EF
100
AcDbEntity
  8
1
  6
CONTINUOUS
 62
     2
100
AcDbBlockReference
  2
ARROW1
 10
7.208833
 20
-1.015833
 30
0.0
 41
0.21094
 42
0.21094
210
0.0
220
0.0
230
1.0
  0
INSERT
  5
2F0
100
AcDbEntity
  8
1
  6
CONTINUOUS
 62
     2
100
AcDbBlockReference
  2
ARROW1
 10
7.29075
 20
-1.01575
 30
0.0
 41
0.21094
 42
0.21094
210
0.0
220
0.0
230
1.0
  0
INSERT
  5
2F1
100
AcDbEntity
  8
1
  6
CONTINUOUS
 62
     2
100
AcDbBlockReference
  2
ARROW1
 10
7.209333
 20
-1.016
 30
0.0
 41
0.21094
 42
0.21094
 50
180.0
210
0.0
220
0.0
230
1.0
  0
LINE
  5
2F2
100
AcDbEntity
  8
1
  6
CONTINUOUS
 62
   253
100
AcDbLine
 10
7.384417
 20
-1.017
 30
0.0
 11
7.385
 21
-1.017
 31
0.0
  0
LINE
  5
2F3
100
AcDbEntity
  8
1
  6
CONTINUOUS
 62
   131
100
AcDbLine
 10
6.819083
 20
-0.790583
 30
0.0
 11
6.819083
 21
-1.03125
 31
0.0
  0
LINE
  5
2F4
100
AcDbEntity
  8
1
  6
CONTINUOUS
 62
   253
100
AcDbLine
 10
6.738417
 20
-0.780333
 30
0.0
 11
6.738417
 21
-0.780417
 31
0.0
  0
LINE
  5
2F5
100
AcDbEntity
  8
1
  6
CONTINUOUS
 62
   131
100
AcDbLine
 10
6.738417
 20
-0.78875
 30
0.0
 11
6.738417
 21
-1.0295
 31
0.0
  0
LINE
  5
2F6
100
AcDbEntity
  8
1
  6
CONTINUOUS
 62
   131
100
AcDbLine
 10
6.65325
 20
-0.78575
 30
0.0
 11
6.65325
 21
-1.027667
 31
0.0
  0
LINE
  5
2F7
100
AcDbEntity
  8
1
  6
CONTINUOUS
 62
   131
100
AcDbLine
 10
6.635583
 20
-0.8165
 30
0.0
 11
6.635583
 21
-1.076917
 31
0.0
  0
LINE
  5
2F8
100
AcDbEntity
  8
1
  6
CONTINUOUS
 62
   131
100
AcDbLine
 10
6.630333
 20
-0.722917
 30
0.0
 11
6.55225
 21
-0.722917
 31
0.0
  0
LINE
  5
2F9
100
AcDbEntity
  8
1
  6
CONTINUOUS
 62
   131
100
AcDbLine
 10
6.635583
 20
-0.715917
 30
0.0
 11
6.635583
 21
-0.639583
 31
0.0
  0
LINE
  5
2FA
100
AcDbEntity
  8
1
  6
CONTINUOUS
 62
   131
100
AcDbLine
 10
6.65325
 20
-0.733333
 30
0.0
 11
6.65325
 21
-0.678083
 31
0.0
  0
LINE
  5
2FB
100
AcDbEntity
  8
1
  6
CONTINUOUS
 62
   131
100
AcDbLine
 10
6.730333
 20
-0.70525
 30
0.0
 11
6.55475
 21
-0.70525
 31
0.0
  0
POLYLINE
  5
2FC
100
AcDbEntity
  8
1
  6
CONTINUOUS
 62
   253
100
AcDb2dPolyline
 66
     1
 10
0.0
 20
0.0
 30
0.0
  0
VERTEX
  5
2FD
100
AcDbEntity
  8
1
  6
CONTINUOUS
 62
   253
100
AcDbVertex
100
AcDb2dVertex
 10
6.86675
 20
-0.754167
 30
0.0
  0
VERTEX
  5
2FE
100
AcDbEntity
  8
1
  6
CONTINUOUS
 62
   253
100
AcDbVertex
100
AcDb2dVertex
 10
6.86775
 20
-0.755167
 30
0.0
  0
SEQEND
  5
2FF
100
AcDbEntity
  8
1
  6
CONTINUOUS
 62
   253
  0
LINE
  5
300
100
AcDbEntity
  8
1
  6
CONTINUOUS
 62
   253
100
AcDbLine
 10
7.209167
 20
-0.774333
 30
0.0
 11
7.209167
 21
-0.782
 31
0.0
  0
LINE
  5
301
100
AcDbEntity
  8
1
  6
CONTINUOUS
 62
   131
100
AcDbLine
 10
7.209167
 20
-0.791083
 30
0.0
 11
7.209167
 21
-1.033083
 31
0.0
  0
LINE
  5
302
100
AcDbEntity
  8
1
  6
CONTINUOUS
 62
   131
100
AcDbLine
 10
7.291083
 20
-0.79075
 30
0.0
 11
7.291083
 21
-1.033917
 31
0.0
  0
LINE
  5
303
100
AcDbEntity
  8
1
  6
CONTINUOUS
 62
   131
100
AcDbLine
 10
7.367917
 20
-0.78775
 30
0.0
 11
7.367917
 21
-1.033917
 31
0.0
  0
LINE
  5
304
100
AcDbEntity
  8
1
  6
CONTINUOUS
 62
   253
100
AcDbLine
 10
7.367917
 20
-0.795917
 30
0.0
 11
7.367917
 21
-0.7975
 31
0.0
  0
LINE
  5
305
100
AcDbEntity
  8
1
  6
CONTINUOUS
 62
   131
100
AcDbLine
 10
7.375917
 20
-0.783583
 30
0.0
 11
7.429917
 21
-0.783583
 31
0.0
  0
LINE
  5
306
100
AcDbEntity
  8
1
  6
CONTINUOUS
 62
   131
100
AcDbLine
 10
7.3735
 20
-0.74525
 30
0.0
 11
7.430083
 21
-0.74525
 31
0.0
  0
LINE
  5
307
100
AcDbEntity
  8
1
  6
CONTINUOUS
 62
   253
100
AcDbLine
 10
7.367917
 20
-0.741
 30
0.0
 11
7.367917
 21
-0.678083
 31
0.0
  0
LINE
  5
308
100
AcDbEntity
  8
1
  6
CONTINUOUS
 62
   131
100
AcDbLine
 10
7.39125
 20
-0.722917
 30
0.0
 11
7.468917
 21
-0.722917
 31
0.0
  0
LINE
  5
309
100
AcDbEntity
  8
1
  6
CONTINUOUS
 62
   131
100
AcDbLine
 10
7.385583
 20
-0.717
 30
0.0
 11
7.385583
 21
-0.639583
 31
0.0
  0
LINE
  5
30A
100
AcDbEntity
  8
1
  6
CONTINUOUS
 62
   253
100
AcDbLine
 10
7.385583
 20
-0.80625
 30
0.0
 11
7.385583
 21
-0.806583
 31
0.0
  0
LINE
  5
30B
100
AcDbEntity
  8
1
  6
CONTINUOUS
 62
   131
100
AcDbLine
 10
7.385583
 20
-0.81275
 30
0.0
 11
7.385583
 21
-0.8945
 31
0.0
  0
LINE
  5
30C
100
AcDbEntity
  8
1
  6
CONTINUOUS
 62
   131
100
AcDbLine
 10
7.305083
 20
-0.389583
 30
0.0
 11
7.468917
 21
-0.389583
 31
0.0
  0
LINE
  5
30D
100
AcDbEntity
  8
1
  6
CONTINUOUS
 62
   253
100
AcDbLine
 10
7.30225
 20
-0.35625
 30
0.0
 11
7.30225
 21
-0.355917
 31
0.0
  0
LINE
  5
30E
100
AcDbEntity
  8
1
  6
CONTINUOUS
 62
   253
100
AcDbLine
 10
7.30225
 20
-0.35625
 30
0.0
 11
7.302333
 21
-0.35625
 31
0.0
  0
LINE
  5
30F
100
AcDbEntity
  8
1
  6
CONTINUOUS
 62
   131
100
AcDbLine
 10
6.736583
 20
-0.398667
 30
0.0
 11
6.736583
 21
-0.34475
 31
0.0
  0
LINE
  5
310
100
AcDbEntity
  8
1
  6
CONTINUOUS
 62
   131
100
AcDbLine
 10
6.729583
 20
-0.40725
 30
0.0
 11
6.552333
 21
-0.40725
 31
0.0
  0
LINE
  5
311
100
AcDbEntity
  8
1
  6
CONTINUOUS
 62
   131
100
AcDbLine
 10
6.718917
 20
-0.386083
 30
0.0
 11
6.718917
 21
-0.222917
 31
0.0
  0
LINE
  5
312
100
AcDbEntity
  8
1
  6
CONTINUOUS
 62
   131
100
AcDbLine
 10
6.716333
 20
-0.389583
 30
0.0
 11
6.55225
 21
-0.389583
 31
0.0
  0
LINE
  5
313
100
AcDbEntity
  8
1
  6
CONTINUOUS
 62
   131
100
AcDbLine
 10
7.28875
 20
0.063083
 30
0.0
 11
7.347083
 21
0.063083
 31
0.0
  0
LINE
  5
314
100
AcDbEntity
  8
1
  6
CONTINUOUS
 62
   253
100
AcDbLine
 10
7.30225
 20
0.045417
 30
0.0
 11
7.302583
 21
0.045417
 31
0.0
  0
LINE
  5
315
100
AcDbEntity
  8
1
  6
CONTINUOUS
 62
   131
100
AcDbLine
 10
7.306667
 20
0.045417
 30
0.0
 11
7.385583
 21
0.045417
 31
0.0
  0
LINE
  5
316
100
AcDbEntity
  8
1
  6
CONTINUOUS
 62
   131
100
AcDbLine
 10
7.287083
 20
0.195667
 30
0.0
 11
7.347083
 21
0.195667
 31
0.0
  0
LINE
  5
317
100
AcDbEntity
  8
1
  6
CONTINUOUS
 62
   131
100
AcDbLine
 10
7.284583
 20
0.205417
 30
0.0
 11
7.284583
 21
0.267333
 31
0.0
  0
LINE
  5
318
100
AcDbEntity
  8
1
  6
CONTINUOUS
 62
   131
100
AcDbLine
 10
7.30725
 20
0.212083
 30
0.0
 11
7.385583
 21
0.212083
 31
0.0
  0
LINE
  5
319
100
AcDbEntity
  8
1
  6
CONTINUOUS
 62
   253
100
AcDbLine
 10
7.30225
 20
0.217583
 30
0.0
 11
7.30225
 21
0.299167
 31
0.0
  0
LINE
  5
31A
100
AcDbEntity
  8
1
  6
CONTINUOUS
 62
   131
100
AcDbLine
 10
7.219167
 20
0.205667
 30
0.0
 11
7.219167
 21
0.268583
 31
0.0
  0
LINE
  5
31B
100
AcDbEntity
  8
1
  6
CONTINUOUS
 62
   253
100
AcDbLine
 10
6.718917
 20
0.212083
 30
0.0
 11
6.718917
 21
0.212167
 31
0.0
  0
LINE
  5
31C
100
AcDbEntity
  8
1
  6
CONTINUOUS
 62
   131
100
AcDbLine
 10
6.718917
 20
0.216833
 30
0.0
 11
6.718917
 21
0.3015
 31
0.0
  0
LINE
  5
31D
100
AcDbEntity
  8
1
  6
CONTINUOUS
 62
   131
100
AcDbLine
 10
6.736583
 20
0.199417
 30
0.0
 11
6.736583
 21
0.267333
 31
0.0
  0
LINE
  5
31E
100
AcDbEntity
  8
1
  6
CONTINUOUS
 62
   131
100
AcDbLine
 10
6.8025
 20
0.204667
 30
0.0
 11
6.8025
 21
0.267917
 31
0.0
  0
LINE
  5
31F
100
AcDbEntity
  8
1
  6
CONTINUOUS
 62
   131
100
AcDbLine
 10
7.710083
 20
-0.714583
 30
0.0
 11
7.710083
 21
-0.6395
 31
0.0
  0
LINE
  5
320
100
AcDbEntity
  8
1
  6
CONTINUOUS
 62
   253
100
AcDbLine
 10
7.996
 20
-0.806167
 30
0.0
 11
8.038
 21
-0.806167
 31
0.0
  0
LINE
  5
321
100
AcDbEntity
  8
1
  6
CONTINUOUS
 62
   131
100
AcDbLine
 10
8.050583
 20
-0.806167
 30
0.0
 11
8.12675
 21
-0.806167
 31
0.0
  0
LINE
  5
322
100
AcDbEntity
  8
1
  6
CONTINUOUS
 62
   131
100
AcDbLine
 10
8.049583
 20
-0.722833
 30
0.0
 11
8.12675
 21
-0.722833
 31
0.0
  0
LINE
  5
323
100
AcDbEntity
  8
1
  6
CONTINUOUS
 62
   131
100
AcDbLine
 10
8.043417
 20
-0.716083
 30
0.0
 11
8.043417
 21
-0.6395
 31
0.0
  0
LINE
  5
324
100
AcDbEntity
  8
1
  6
CONTINUOUS
 62
   131
100
AcDbLine
 10
7.947333
 20
-0.708167
 30
0.0
 11
8.071333
 21
-0.708167
 31
0.0
  0
LINE
  5
325
100
AcDbEntity
  8
1
  6
CONTINUOUS
 62
   131
100
AcDbLine
 10
7.948833
 20
-0.407167
 30
0.0
 11
8.07225
 21
-0.407167
 31
0.0
  0
LINE
  5
326
100
AcDbEntity
  8
1
  6
CONTINUOUS
 62
   131
100
AcDbLine
 10
7.942417
 20
-0.39925
 30
0.0
 11
7.942417
 21
-0.344667
 31
0.0
  0
LINE
  5
327
100
AcDbEntity
  8
1
  6
CONTINUOUS
 62
   131
100
AcDbLine
 10
7.968
 20
-0.3895
 30
0.0
 11
8.12675
 21
-0.3895
 31
0.0
  0
LINE
  5
328
100
AcDbEntity
  8
1
  6
CONTINUOUS
 62
   253
100
AcDbLine
 10
7.960083
 20
-0.474583
 30
0.0
 11
7.960083
 21
-0.40175
 31
0.0
  0
LINE
  5
329
100
AcDbEntity
  8
1
  6
CONTINUOUS
 62
   131
100
AcDbLine
 10
7.960083
 20
-0.38
 30
0.0
 11
7.960083
 21
-0.306167
 31
0.0
  0
LINE
  5
32A
100
AcDbEntity
  8
1
  6
CONTINUOUS
 62
   131
100
AcDbLine
 10
7.811083
 20
-0.39975
 30
0.0
 11
7.811083
 21
-0.344667
 31
0.0
  0
LINE
  5
32B
100
AcDbEntity
  8
1
  6
CONTINUOUS
 62
   131
100
AcDbLine
 10
7.793417
 20
-0.38
 30
0.0
 11
7.793417
 21
-0.306167
 31
0.0
  0
LINE
  5
32C
100
AcDbEntity
  8
1
  6
CONTINUOUS
 62
   253
100
AcDbLine
 10
9.12425
 20
0.24375
 30
0.0
 11
9.20025
 21
0.24375
 31
0.0
  0
TEXT
  5
32D
100
AcDbEntity
  8
1
  6
CONTINUOUS
 62
   253
100
AcDbText
 10
8.891917
 20
0.044167
 30
0.0
 40
0.008333
  1
NO. SPA. OF P502 BARS
  7
TXT
 11
8.891917
 21
0.048333
 31
0.0
210
0.0
220
0.0
230
1.0
100
AcDbText
 73
     2
  0
TEXT
  5
32E
100
AcDbEntity
  8
1
  6
CONTINUOUS
 62
   253
100
AcDbText
 10
9.101333
 20
0.143583
 30
0.0
 40
0.008333
  1
SEE RANGE TABLE
  7
TXT
 11
9.101333
 21
0.14775
 31
0.0
210
0.0
220
0.0
230
1.0
100
AcDbText
 73
     2
  0
TEXT
  5
32F
100
AcDbEntity
  8
1
  6
CONTINUOUS
 62
   253
100
AcDbText
 10
9.133833
 20
0.097583
 30
0.0
 40
0.008333
  1
(D-3)/2
  7
TXT
 11
9.133833
 21
0.10175
 31
0.0
210
0.0
220
0.0
230
1.0
100
AcDbText
 73
     2
  0
INSERT
  5
330
100
AcDbEntity
  8
1
  6
CONTINUOUS
 62
     2
100
AcDbBlockReference
  2
ARROW1
 10
7.184083
 20
-0.628833
 30
0.0
 41
0.21094
 42
0.21094
 50
90.0
210
0.0
220
0.0
230
1.0
  0
INSERT
  5
331
100
AcDbEntity
  8
1
  6
CONTINUOUS
 62
     2
100
AcDbBlockReference
  2
ARROW1
 10
7.184
 20
-0.492333
 30
0.0
 41
0.21094
 42
0.21094
 50
90.0
210
0.0
220
0.0
230
1.0
  0
ARC
  5
332
100
AcDbEntity
  8
1
  6
CONTINUOUS
 62
   253
100
AcDbCircle
 10
7.121955
 20
-0.65425
 30
0.0
 40
0.063418
210
0.0
220
0.0
230
1.0
100
AcDbArc
 50
344.841389
 51
15.158608
  0
ARC
  5
333
100
AcDbEntity
  8
1
  6
CONTINUOUS
 62
   131
100
AcDbCircle
 10
6.434053
 20
-0.558971
 30
0.0
 40
0.752466
210
0.0
220
0.0
230
1.0
100
AcDbArc
 50
354.58985
 51
4.450322
  0
INSERT
  5
37F
100
AcDbEntity
  8
1
  6
CONTINUOUS
 62
     1
100
AcDbBlockReference
  2
BARBND
 10
7.290083
 20
-0.630333
 30
0.0
210
0.0
220
0.0
230
1.0
  0
INSERT
  5
380
100
AcDbEntity
  8
1
  6
CONTINUOUS
 62
     1
100
AcDbBlockReference
  2
BARBND
 10
7.291083
 20
-0.707167
 30
0.0
210
0.0
220
0.0
230
1.0
  0
INSERT
  5
381
100
AcDbEntity
  8
1
  6
CONTINUOUS
 62
     1
100
AcDbBlockReference
  2
BARBND
 10
7.291167
 20
-0.780083
 30
0.0
 50
270.0
210
0.0
220
0.0
230
1.0
  0
INSERT
  5
382
100
AcDbEntity
  8
1
  6
CONTINUOUS
 62
     1
100
AcDbBlockReference
  2
BARBND
 10
7.20925
 20
-0.780083
 30
0.0
 50
270.0
210
0.0
220
0.0
230
1.0
  0
INSERT
  5
383
100
AcDbEntity
  8
1
  6
CONTINUOUS
 62
     1
100
AcDbBlockReference
  2
BARBND
 10
7.14525
 20
-0.780083
 30
0.0
 50
270.0
210
0.0
220
0.0
230
1.0
  0
INSERT
  5
384
100
AcDbEntity
  8
1
  6
CONTINUOUS
 62
     1
100
AcDbBlockReference
  2
BARBND
 10
6.738417
 20
-0.780333
 30
0.0
 50
270.0
210
0.0
220
0.0
230
1.0
  0
INSERT
  5
385
100
AcDbEntity
  8
1
  6
CONTINUOUS
 62
     1
100
AcDbBlockReference
  2
BARBND
 10
6.818917
 20
-0.780083
 30
0.0
 50
270.0
210
0.0
220
0.0
230
1.0
  0
INSERT
  5
386
100
AcDbEntity
  8
1
  6
CONTINUOUS
 62
     1
100
AcDbBlockReference
  2
BARBND
 10
6.738333
 20
-0.708
 30
0.0
 50
180.0
210
0.0
220
0.0
230
1.0
  0
INSERT
  5
387
100
AcDbEntity
  8
1
  6
CONTINUOUS
 62
     1
100
AcDbBlockReference
  2
BARBND
 10
6.737167
 20
-0.630417
 30
0.0
 50
180.0
210
0.0
220
0.0
230
1.0
  0
INSERT
  5
388
100
AcDbEntity
  8
1
  6
CONTINUOUS
 62
     1
100
AcDbBlockReference
  2
BARBND
 10
6.737
 20
-0.495167
 30
0.0
 50
180.0
210
0.0
220
0.0
230
1.0
  0
INSERT
  5
389
100
AcDbEntity
  8
1
  6
CONTINUOUS
 62
     1
100
AcDbBlockReference
  2
BARBND
 10
6.737
 20
-0.410583
 30
0.0
 50
180.0
210
0.0
220
0.0
230
1.0
  0
INSERT
  5
38A
100
AcDbEntity
  8
1
  6
CONTINUOUS
 62
     1
100
AcDbBlockReference
  2
BARBND
 10
6.737083
 20
-0.407083
 30
0.0
 50
90.0
210
0.0
220
0.0
230
1.0
  0
INSERT
  5
38B
100
AcDbEntity
  8
1
  6
CONTINUOUS
 62
     1
100
AcDbBlockReference
  2
BARBND
 10
6.819417
 20
-0.406667
 30
0.0
 50
90.0
210
0.0
220
0.0
230
1.0
  0
INSERT
  5
38C
100
AcDbEntity
  8
1
  6
CONTINUOUS
 62
     1
100
AcDbBlockReference
  2
BARBND
 10
7.290083
 20
-0.494917
 30
0.0
210
0.0
220
0.0
230
1.0
  0
INSERT
  5
38D
100
AcDbEntity
  8
1
  6
CONTINUOUS
 62
     1
100
AcDbBlockReference
  2
BARBND
 10
6.74575
 20
0.195
 30
0.0
 50
90.0
210
0.0
220
0.0
230
1.0
  0
INSERT
  5
38E
100
AcDbEntity
  8
1
  6
CONTINUOUS
 62
     1
100
AcDbBlockReference
  2
BARBND
 10
6.8025
 20
0.195
 30
0.0
 50
90.0
210
0.0
220
0.0
230
1.0
  0
INSERT
  5
38F
100
AcDbEntity
  8
1
  6
CONTINUOUS
 62
     1
100
AcDbBlockReference
  2
BARBND
 10
6.74575
 20
0.062167
 30
0.0
 50
270.0
210
0.0
220
0.0
230
1.0
  0
INSERT
  5
390
100
AcDbEntity
  8
1
  6
CONTINUOUS
 62
     1
100
AcDbBlockReference
  2
BARBND
 10
6.8025
 20
0.063667
 30
0.0
 50
270.0
210
0.0
220
0.0
230
1.0
  0
LINE
  5
391
100
AcDbEntity
  8
1
  6
CONTINUOUS
 62
   131
100
AcDbLine
 10
6.71825
 20
-0.242917
 30
0.0
 11
7.021083
 21
-0.242917
 31
0.0
  0
LINE
  5
392
100
AcDbEntity
  8
1
  6
CONTINUOUS
 62
   131
100
AcDbLine
 10
7.021083
 20
-0.242917
 30
0.0
 11
7.301583
 21
-0.242917
 31
0.0
  0
LINE
  5
393
100
AcDbEntity
  8
1
  6
CONTINUOUS
 62
   253
100
AcDbLine
 10
8.74225
 20
-0.83625
 30
0.0
 11
9.36725
 21
-0.83625
 31
0.0
  0
LINE
  5
394
100
AcDbEntity
  8
1
  6
CONTINUOUS
 62
   253
100
AcDbLine
 10
8.74225
 20
-0.256917
 30
0.0
 11
8.74225
 21
-0.836167
 31
0.0
  0
LINE
  5
395
100
AcDbEntity
  8
1
  6
CONTINUOUS
 62
   253
100
AcDbLine
 10
8.782167
 20
-1.01775
 30
0.0
 11
9.323833
 21
-1.01775
 31
0.0
  0
TEXT
  5
396
100
AcDbEntity
  8
1
  6
CONTINUOUS
 62
     2
100
AcDbText
 10
8.91275
 20
-1.32975
 30
0.0
 40
0.020834
  1
REINFORCED CONCRETE
  7
TXT
 11
8.91275
 21
-1.319333
 31
0.0
210
0.0
220
0.0
230
1.0
100
AcDbText
 73
     2
  0
TEXT
  5
397
100
AcDbEntity
  8
1
  6
CONTINUOUS
 62
   110
100
AcDbText
 10
7.4445
 20
-0.58975
 30
0.0
 40
0.008333
  1
A =      
 50
90.0
  7
TXT
210
0.0
220
0.0
230
1.0
100
AcDbText
  0
TEXT
  5
398
100
AcDbEntity
  8
1
  6
CONTINUOUS
 62
   110
100
AcDbText
 10
6.988417
 20
-1.057083
 30
0.0
 40
0.008333
  1
C =      
  7
TXT
210
0.0
220
0.0
230
1.0
100
AcDbText
  0
INSERT
  5
39D
100
AcDbEntity
  8
1
  6
CONTINUOUS
 62
     2
100
AcDbBlockReference
  2
CIRCLE
 10
6.992
 20
-1.053667
 30
0.0
210
0.0
220
0.0
230
1.0
  0
TEXT
  5
39E
100
AcDbEntity
  8
1
  6
CONTINUOUS
 62
   110
100
AcDbText
 10
6.986167
 20
-0.229
 30
0.0
 40
0.008333
  1
B =      
  7
TXT
210
0.0
220
0.0
230
1.0
100
AcDbText
  0
INSERT
  5
39F
100
AcDbEntity
  8
1
  6
CONTINUOUS
 62
     2
100
AcDbBlockReference
  2
CIRCLE
 10
6.989
 20
-0.2255
 30
0.0
210
0.0
220
0.0
230
1.0
  0
INSERT
  5
3A0
100
AcDbEntity
  8
1
  6
CONTINUOUS
 62
     2
100
AcDbBlockReference
  2
CIRCLE
 10
7.441333
 20
-0.587
 30
0.0
 50
90.0
210
0.0
220
0.0
230
1.0
  0
TEXT
  5
3A1
100
AcDbEntity
  8
1
  6
CONTINUOUS
 62
   110
100
AcDbText
 10
6.954
 20
0.29325
 30
0.0
 40
0.008333
  1
B =      
  7
TXT
210
0.0
220
0.0
230
1.0
100
AcDbText
  0
INSERT
  5
3A2
100
AcDbEntity
  8
1
  6
CONTINUOUS
 62
     2
100
AcDbBlockReference
  2
CIRCLE
 10
6.956
 20
0.297583
 30
0.0
210
0.0
220
0.0
230
1.0
  0
LINE
  5
3A3
100
AcDbEntity
  8
1
  6
CONTINUOUS
 62
   131
100
AcDbLine
 10
7.3955
 20
-0.6885
 30
0.0
 11
7.407667
 21
-0.6885
 31
0.0
  0
TEXT
  5
3A4
100
AcDbEntity
  8
1
  6
CONTINUOUS
 62
   110
100
AcDbText
 10
8.10375
 20
-0.588583
 30
0.0
 40
0.008333
  1
A =      
 50
90.0
  7
TXT
210
0.0
220
0.0
230
1.0
100
AcDbText
  0
INSERT
  5
3A5
100
AcDbEntity
  8
1
  6
CONTINUOUS
 62
     2
100
AcDbBlockReference
  2
CIRCLE
 10
8.100417
 20
-0.585833
 30
0.0
 50
90.0
210
0.0
220
0.0
230
1.0
  0
TEXT
  5
3A6
100
AcDbEntity
  8
1
  6
CONTINUOUS
 62
   110
100
AcDbText
 10
7.72025
 20
-0.654583
 30
0.0
 40
0.008333
  1
E =      
  7
TXT
210
0.0
220
0.0
230
1.0
100
AcDbText
  0
INSERT
  5
3A7
100
AcDbEntity
  8
1
  6
CONTINUOUS
 62
     2
100
AcDbBlockReference
  2
CIRCLE
 10
7.723
 20
-0.650667
 30
0.0
210
0.0
220
0.0
230
1.0
  0
TEXT
  5
3A8
100
AcDbEntity
  8
1
  6
CONTINUOUS
 62
   110
100
AcDbText
 10
7.972833
 20
-0.655083
 30
0.0
 40
0.008333
  1
E =      
  7
TXT
210
0.0
220
0.0
230
1.0
100
AcDbText
  0
INSERT
  5
3A9
100
AcDbEntity
  8
1
  6
CONTINUOUS
 62
     2
100
AcDbBlockReference
  2
CIRCLE
 10
7.975583
 20
-0.650667
 30
0.0
210
0.0
220
0.0
230
1.0
  0
INSERT
  5
3AA
100
AcDbEntity
  8
1
  6
CONTINUOUS
 62
     2
100
AcDbBlockReference
  2
CIRCLE
 10
7.975583
 20
-0.65125
 30
0.0
210
0.0
220
0.0
230
1.0
  0
TEXT
  5
3AB
100
AcDbEntity
  8
1
  6
CONTINUOUS
 62
   110
100
AcDbText
 10
7.850667
 20
-0.949083
 30
0.0
 40
0.008333
  1
D =      
  7
TXT
210
0.0
220
0.0
230
1.0
100
AcDbText
  0
LINE
  5
3AC
100
AcDbEntity
  8
1
  6
CONTINUOUS
 62
   131
100
AcDbLine
 10
8.043417
 20
-0.813833
 30
0.0
 11
8.043417
 21
-0.964833
 31
0.0
  0
LINE
  5
3AD
100
AcDbEntity
  8
1
  6
CONTINUOUS
 62
   131
100
AcDbLine
 10
7.710083
 20
-0.815333
 30
0.0
 11
7.710083
 21
-0.963583
 31
0.0
  0
INSERT
  5
3AE
100
AcDbEntity
  8
1
  6
CONTINUOUS
 62
     2
100
AcDbBlockReference
  2
CIRCLE
 10
7.852917
 20
-0.944667
 30
0.0
210
0.0
220
0.0
230
1.0
  0
LINE
  5
3AF
100
AcDbEntity
  8
1
  6
CONTINUOUS
 62
   253
100
AcDbLine
 10
8.74225
 20
-0.256917
 30
0.0
 11
9.36725
 21
-0.256917
 31
0.0
  0
LINE
  5
3B0
100
AcDbEntity
  8
1
  6
CONTINUOUS
 62
   253
100
AcDbLine
 10
8.782167
 20
-0.850917
 30
0.0
 11
9.323833
 21
-0.850917
 31
0.0
  0
LINE
  5
3B1
100
AcDbEntity
  8
1
  6
CONTINUOUS
 62
   253
100
AcDbLine
 10
8.789583
 20
0.325667
 30
0.0
 11
9.33125
 21
0.325667
 31
0.0
  0
LINE
  5
3B2
100
AcDbEntity
  8
1
  6
CONTINUOUS
 62
   253
100
AcDbLine
 10
8.872917
 20
0.292167
 30
0.0
 11
8.872917
 21
-0.207833
 31
0.0
  0
LINE
  5
3B3
100
AcDbEntity
  8
1
  6
CONTINUOUS
 62
   253
100
AcDbLine
 10
8.129667
 20
-0.018417
 30
0.0
 11
8.411083
 21
-0.018417
 31
0.0
  0
LINE
  5
3B4
100
AcDbEntity
  8
1
  6
CONTINUOUS
 62
   253
100
AcDbLine
 10
8.129667
 20
-0.088833
 30
0.0
 11
8.411083
 21
-0.088833
 31
0.0
  0
LINE
  5
3B5
100
AcDbEntity
  8
1
  6
CONTINUOUS
 62
   253
100
AcDbLine
 10
8.129667
 20
-0.055333
 30
0.0
 11
8.411083
 21
-0.055333
 31
0.0
  0
LINE
  5
3B6
100
AcDbEntity
  8
1
  6
CONTINUOUS
 62
   253
100
AcDbLine
 10
8.129667
 20
0.019333
 30
0.0
 11
8.411083
 21
0.019333
 31
0.0
  0
LINE
  5
3B7
100
AcDbEntity
  8
1
  6
CONTINUOUS
 62
   131
100
AcDbLine
 10
6.735583
 20
0.256167
 30
0.0
 11
7.2825
 21
0.256167
 31
0.0
  0
TEXT
  5
3B8
100
AcDbEntity
  8
1
  6
CONTINUOUS
 62
   110
100
AcDbText
 10
6.552417
 20
-0.583167
 30
0.0
 40
0.008333
  1
AA =      
 50
90.0
  7
TXT
 72
     1
 11
6.552417
 21
-0.54825
 31
0.0
210
0.0
220
0.0
230
1.0
100
AcDbText
  0
CIRCLE
  5
3B9
100
AcDbEntity
  8
1
  6
CONTINUOUS
 62
     2
100
AcDbCircle
 10
6.549667
 20
-0.57625
 30
0.0
 40
0.008584
210
0.0
220
0.0
230
1.0
  0
LINE
  5
3BA
100
AcDbEntity
  8
1
  6
CONTINUOUS
 62
   131
100
AcDbLine
 10
6.9145
 20
-0.966833
 30
0.0
 11
6.872833
 21
-0.966833
 31
0.0
  0
LINE
  5
3BB
100
AcDbEntity
  8
1
  6
CONTINUOUS
 62
   131
100
AcDbLine
 10
6.879083
 20
-0.329667
 30
0.0
 11
6.92075
 21
-0.329667
 31
0.0
  0
LINE
  5
3BC
100
AcDbEntity
  8
1
  6
CONTINUOUS
 62
   131
100
AcDbLine
 10
6.920583
 20
-0.329583
 30
0.0
 11
6.920583
 21
-0.37125
 31
0.0
  0
LINE
  5
3BD
100
AcDbEntity
  8
1
  6
CONTINUOUS
 62
   131
100
AcDbLine
 10
6.92075
 20
-0.371333
 30
0.0
 11
6.92075
 21
-0.381833
 31
0.0
  0
TEXT
  5
3BE
100
AcDbEntity
  8
1
  6
CONTINUOUS
 62
   253
100
AcDbText
 10
8.81225
 20
0.037167
 30
0.0
 40
0.008333
  1
AA
  7
TXT
 72
     4
 11
8.819
 21
0.041333
 31
0.0
210
0.0
220
0.0
230
1.0
100
AcDbText
  0
POLYLINE
  5
3BF
100
AcDbEntity
  8
1
  6
CONTINUOUS
 62
     1
100
AcDb2dPolyline
 66
     1
 10
0.0
 20
0.0
 30
0.0
  0
VERTEX
  5
3C0
100
AcDbEntity
  8
1
  6
CONTINUOUS
 62
     1
100
AcDbVertex
100
AcDb2dVertex
 10
6.336
 20
0.527917
 30
0.0
  0
VERTEX
  5
3C1
100
AcDbEntity
  8
1
  6
CONTINUOUS
 62
     1
100
AcDbVertex
100
AcDb2dVertex
 10
9.532417
 20
0.527917
 30
0.0
  0
VERTEX
  5
3C2
100
AcDbEntity
  8
1
  6
CONTINUOUS
 62
     1
100
AcDbVertex
100
AcDb2dVertex
 10
9.532667
 20
0.52775
 30
0.0
  0
VERTEX
  5
3C3
100
AcDbEntity
  8
1
  6
CONTINUOUS
 62
     1
100
AcDbVertex
100
AcDb2dVertex
 10
9.532667
 20
-1.458667
 30
0.0
  0
VERTEX
  5
3C4
100
AcDbEntity
  8
1
  6
CONTINUOUS
 62
     1
100
AcDbVertex
100
AcDb2dVertex
 10
9.53275
 20
-1.458833
 30
0.0
  0
VERTEX
  5
3C5
100
AcDbEntity
  8
1
  6
CONTINUOUS
 62
     1
100
AcDbVertex
100
AcDb2dVertex
 10
6.336
 20
-1.458833
 30
0.0
  0
VERTEX
  5
3C6
100
AcDbEntity
  8
1
  6
CONTINUOUS
 62
     1
100
AcDbVertex
100
AcDb2dVertex
 10
6.336
 20
-1.46
 30
0.0
  0
VERTEX
  5
3C7
100
AcDbEntity
  8
1
  6
CONTINUOUS
 62
     1
100
AcDbVertex
100
AcDb2dVertex
 10
6.336
 20
0.52825
 30
0.0
  0
SEQEND
  5
3C8
100
AcDbEntity
  8
1
  6
CONTINUOUS
 62
     1
  0
CIRCLE
  5
3C9
100
AcDbEntity
  8
1
  6
CONTINUOUS
 62
     1
100
AcDbCircle
 10
7.1615
 20
0.1953
 30
0.0
 40
0.00132
210
0.0
220
0.0
230
1.0
  0
LINE
  5
3CA
100
AcDbEntity
  8
1
  6
CONTINUOUS
 62
     1
100
AcDbLine
 10
7.160167
 20
0.19525
 30
0.0
 11
7.16275
 21
0.195583
 31
0.0
  0
LINE
  5
3CB
100
AcDbEntity
  8
1
  6
CONTINUOUS
 62
     1
100
AcDbLine
 10
7.16275
 20
0.195583
 30
0.0
 11
7.160417
 21
0.196083
 31
0.0
  0
LINE
  5
3CC
100
AcDbEntity
  8
1
  6
CONTINUOUS
 62
     1
100
AcDbLine
 10
7.160417
 20
0.196083
 30
0.0
 11
7.16275
 21
0.195
 31
0.0
  0
LINE
  5
3CD
100
AcDbEntity
  8
1
  6
CONTINUOUS
 62
     1
100
AcDbLine
 10
7.16275
 20
0.195
 30
0.0
 11
7.160333
 21
0.194583
 31
0.0
  0
LINE
  5
3CE
100
AcDbEntity
  8
1
  6
CONTINUOUS
 62
     1
100
AcDbLine
 10
7.160333
 20
0.194583
 30
0.0
 11
7.162333
 21
0.19425
 31
0.0
  0
LINE
  5
3CF
100
AcDbEntity
  8
1
  6
CONTINUOUS
 62
     1
100
AcDbLine
 10
7.162333
 20
0.19425
 30
0.0
 11
7.162333
 21
0.196333
 31
0.0
  0
LINE
  5
3D0
100
AcDbEntity
  8
1
  6
CONTINUOUS
 62
     1
100
AcDbLine
 10
7.162333
 20
0.196333
 30
0.0
 11
7.161417
 21
0.194
 31
0.0
  0
LINE
  5
3D1
100
AcDbEntity
  8
1
  6
CONTINUOUS
 62
     1
100
AcDbLine
 10
7.161417
 20
0.194
 30
0.0
 11
7.161667
 21
0.196583
 31
0.0
  0
LINE
  5
3D2
100
AcDbEntity
  8
1
  6
CONTINUOUS
 62
     1
100
AcDbLine
 10
7.161667
 20
0.196583
 30
0.0
 11
7.160667
 21
0.19425
 31
0.0
  0
LINE
  5
3D3
100
AcDbEntity
  8
1
  6
CONTINUOUS
 62
     1
100
AcDbLine
 10
7.160667
 20
0.19425
 30
0.0
 11
7.161
 21
0.196583
 31
0.0
  0
LINE
  5
3D4
100
AcDbEntity
  8
1
  6
CONTINUOUS
 62
     1
100
AcDbLine
 10
7.161
 20
0.196583
 30
0.0
 11
7.161833
 21
0.194
 31
0.0
  0
LINE
  5
3D5
100
AcDbEntity
  8
1
  6
CONTINUOUS
 62
     1
100
AcDbLine
 10
7.161833
 20
0.194
 30
0.0
 11
7.16025
 21
0.19575
 31
0.0
  0
LINE
  5
3D6
100
AcDbEntity
  8
1
  6
CONTINUOUS
 62
     1
100
AcDbLine
 10
7.16025
 20
0.19575
 30
0.0
 11
7.162667
 21
0.195917
 31
0.0
  0
LINE
  5
3D7
100
AcDbEntity
  8
1
  6
CONTINUOUS
 62
     1
100
AcDbLine
 10
7.162667
 20
0.195917
 30
0.0
 11
7.161
 21
0.194083
 31
0.0
  0
LINE
  5
3D8
100
AcDbEntity
  8
1
  6
CONTINUOUS
 62
     1
100
AcDbLine
 10
7.161
 20
0.194083
 30
0.0
 11
7.162083
 21
0.1965
 31
0.0
  0
LINE
  5
3D9
100
AcDbEntity
  8
1
  6
CONTINUOUS
 62
     1
100
AcDbLine
 10
7.162083
 20
0.1965
 30
0.0
 11
7.160417
 21
0.196083
 31
0.0
  0
LINE
  5
3DA
100
AcDbEntity
  8
1
  6
CONTINUOUS
 62
     1
100
AcDbLine
 10
7.160417
 20
0.196083
 30
0.0
 11
7.160333
 21
0.194583
 31
0.0
  0
LINE
  5
3DB
100
AcDbEntity
  8
1
  6
CONTINUOUS
 62
     1
100
AcDbLine
 10
7.160333
 20
0.194583
 30
0.0
 11
7.161417
 21
0.194
 31
0.0
  0
LINE
  5
3DC
100
AcDbEntity
  8
1
  6
CONTINUOUS
 62
     1
100
AcDbLine
 10
7.161417
 20
0.194
 30
0.0
 11
7.162333
 21
0.19425
 31
0.0
  0
LINE
  5
3DD
100
AcDbEntity
  8
1
  6
CONTINUOUS
 62
     1
100
AcDbLine
 10
7.162333
 20
0.19425
 30
0.0
 11
7.16275
 21
0.195
 31
0.0
  0
LINE
  5
3DE
100
AcDbEntity
  8
1
  6
CONTINUOUS
 62
     1
100
AcDbLine
 10
7.16275
 20
0.195
 30
0.0
 11
7.162667
 21
0.195917
 31
0.0
  0
LINE
  5
3DF
100
AcDbEntity
  8
1
  6
CONTINUOUS
 62
     1
100
AcDbLine
 10
7.162667
 20
0.195917
 30
0.0
 11
7.162083
 21
0.1965
 31
0.0
  0
LINE
  5
3E0
100
AcDbEntity
  8
1
  6
CONTINUOUS
 62
     1
100
AcDbLine
 10
7.162083
 20
0.1965
 30
0.0
 11
7.161417
 21
0.195417
 31
0.0
  0
LINE
  5
3E1
100
AcDbEntity
  8
1
  6
CONTINUOUS
 62
     1
100
AcDbLine
 10
7.161417
 20
0.195417
 30
0.0
 11
7.162583
 21
0.1945
 31
0.0
  0
LINE
  5
3E2
100
AcDbEntity
  8
1
  6
CONTINUOUS
 62
     1
100
AcDbLine
 10
7.162583
 20
0.1945
 30
0.0
 11
7.160667
 21
0.19425
 31
0.0
  0
LINE
  5
3E3
100
AcDbEntity
  8
1
  6
CONTINUOUS
 62
     1
100
AcDbLine
 10
7.160667
 20
0.19425
 30
0.0
 11
7.161417
 21
0.195417
 31
0.0
  0
LINE
  5
3E4
100
AcDbEntity
  8
1
  6
CONTINUOUS
 62
     1
100
AcDbLine
 10
7.161417
 20
0.195417
 30
0.0
 11
7.160333
 21
0.195917
 31
0.0
  0
LINE
  5
3E5
100
AcDbEntity
  8
1
  6
CONTINUOUS
 62
     1
100
AcDbLine
 10
7.160333
 20
0.195917
 30
0.0
 11
7.161333
 21
0.196583
 31
0.0
  0
LINE
  5
3E6
100
AcDbEntity
  8
1
  6
CONTINUOUS
 62
     1
100
AcDbLine
 10
7.161333
 20
0.196583
 30
0.0
 11
7.161417
 21
0.1955
 31
0.0
  0
LINE
  5
3E7
100
AcDbEntity
  8
1
  6
CONTINUOUS
 62
     1
100
AcDbLine
 10
7.161417
 20
0.1955
 30
0.0
 11
7.16225
 21
0.19425
 31
0.0
  0
LINE
  5
3E8
100
AcDbEntity
  8
1
  6
CONTINUOUS
 62
     1
100
AcDbLine
 10
7.16225
 20
0.19425
 30
0.0
 11
7.16025
 21
0.1955
 31
0.0
  0
LINE
  5
3E9
100
AcDbEntity
  8
1
  6
CONTINUOUS
 62
     1
100
AcDbLine
 10
7.16025
 20
0.1955
 30
0.0
 11
7.161583
 21
0.195833
 31
0.0
  0
LINE
  5
3EA
100
AcDbEntity
  8
1
  6
CONTINUOUS
 62
     1
100
AcDbLine
 10
7.161583
 20
0.195833
 30
0.0
 11
7.162333
 21
0.196333
 31
0.0
  0
LINE
  5
3EB
100
AcDbEntity
  8
1
  6
CONTINUOUS
 62
     1
100
AcDbLine
 10
7.160583
 20
0.196083
 30
0.0
 11
7.1605
 21
0.194583
 31
0.0
  0
LINE
  5
3EC
100
AcDbEntity
  8
1
  6
CONTINUOUS
 62
     1
100
AcDbLine
 10
7.160667
 20
0.196083
 30
0.0
 11
7.160583
 21
0.194583
 31
0.0
  0
LINE
  5
3ED
100
AcDbEntity
  8
1
  6
CONTINUOUS
 62
     1
100
AcDbLine
 10
7.160833
 20
0.196083
 30
0.0
 11
7.16075
 21
0.194583
 31
0.0
  0
LINE
  5
3EE
100
AcDbEntity
  8
1
  6
CONTINUOUS
 62
     1
100
AcDbLine
 10
7.160917
 20
0.196083
 30
0.0
 11
7.160833
 21
0.194583
 31
0.0
  0
LINE
  5
3EF
100
AcDbEntity
  8
1
  6
CONTINUOUS
 62
     1
100
AcDbLine
 10
7.161083
 20
0.196083
 30
0.0
 11
7.161
 21
0.194583
 31
0.0
  0
LINE
  5
3F0
100
AcDbEntity
  8
1
  6
CONTINUOUS
 62
     1
100
AcDbLine
 10
7.16125
 20
0.196083
 30
0.0
 11
7.161167
 21
0.194583
 31
0.0
  0
LINE
  5
3F1
100
AcDbEntity
  8
1
  6
CONTINUOUS
 62
     1
100
AcDbLine
 10
7.161417
 20
0.196083
 30
0.0
 11
7.161333
 21
0.194583
 31
0.0
  0
LINE
  5
3F2
100
AcDbEntity
  8
1
  6
CONTINUOUS
 62
     1
100
AcDbLine
 10
7.1615
 20
0.196083
 30
0.0
 11
7.161417
 21
0.194583
 31
0.0
  0
LINE
  5
3F3
100
AcDbEntity
  8
1
  6
CONTINUOUS
 62
     1
100
AcDbLine
 10
7.161583
 20
0.196083
 30
0.0
 11
7.1615
 21
0.194583
 31
0.0
  0
LINE
  5
3F4
100
AcDbEntity
  8
1
  6
CONTINUOUS
 62
     1
100
AcDbLine
 10
7.16175
 20
0.196
 30
0.0
 11
7.161583
 21
0.1945
 31
0.0
  0
LINE
  5
3F5
100
AcDbEntity
  8
1
  6
CONTINUOUS
 62
     1
100
AcDbLine
 10
7.162
 20
0.196
 30
0.0
 11
7.161917
 21
0.1945
 31
0.0
  0
LINE
  5
3F6
100
AcDbEntity
  8
1
  6
CONTINUOUS
 62
     1
100
AcDbLine
 10
7.162
 20
0.196
 30
0.0
 11
7.161917
 21
0.1945
 31
0.0
  0
LINE
  5
3F7
100
AcDbEntity
  8
1
  6
CONTINUOUS
 62
     1
100
AcDbLine
 10
7.162083
 20
0.196
 30
0.0
 11
7.162
 21
0.1945
 31
0.0
  0
LINE
  5
3F8
100
AcDbEntity
  8
1
  6
CONTINUOUS
 62
     1
100
AcDbLine
 10
7.162167
 20
0.196
 30
0.0
 11
7.162083
 21
0.1945
 31
0.0
  0
LINE
  5
3F9
100
AcDbEntity
  8
1
  6
CONTINUOUS
 62
     1
100
AcDbLine
 10
7.162333
 20
0.196
 30
0.0
 11
7.16225
 21
0.1945
 31
0.0
  0
LINE
  5
3FA
100
AcDbEntity
  8
1
  6
CONTINUOUS
 62
     1
100
AcDbLine
 10
7.16225
 20
0.196
 30
0.0
 11
7.162167
 21
0.1945
 31
0.0
  0
LINE
  5
3FB
100
AcDbEntity
  8
1
  6
CONTINUOUS
 62
     1
100
AcDbLine
 10
7.1625
 20
0.196
 30
0.0
 11
7.162417
 21
0.1945
 31
0.0
  0
LINE
  5
3FC
100
AcDbEntity
  8
1
  6
CONTINUOUS
 62
     1
100
AcDbLine
 10
7.162667
 20
0.196
 30
0.0
 11
7.162583
 21
0.1945
 31
0.0
  0
LINE
  5
3FD
100
AcDbEntity
  8
1
  6
CONTINUOUS
 62
     1
100
AcDbLine
 10
7.160333
 20
0.194667
 30
0.0
 11
7.162333
 21
0.194333
 31
0.0
  0
LINE
  5
3FE
100
AcDbEntity
  8
1
  6
CONTINUOUS
 62
     1
100
AcDbLine
 10
7.160417
 20
0.19475
 30
0.0
 11
7.162333
 21
0.194417
 31
0.0
  0
LINE
  5
3FF
100
AcDbEntity
  8
1
  6
CONTINUOUS
 62
     1
100
AcDbLine
 10
7.160417
 20
0.194833
 30
0.0
 11
7.162333
 21
0.1945
 31
0.0
  0
LINE
  5
400
100
AcDbEntity
  8
1
  6
CONTINUOUS
 62
     1
100
AcDbLine
 10
7.160417
 20
0.194917
 30
0.0
 11
7.162417
 21
0.194583
 31
0.0
  0
LINE
  5
401
100
AcDbEntity
  8
1
  6
CONTINUOUS
 62
     1
100
AcDbLine
 10
7.160417
 20
0.195167
 30
0.0
 11
7.162417
 21
0.19475
 31
0.0
  0
LINE
  5
402
100
AcDbEntity
  8
1
  6
CONTINUOUS
 62
     1
100
AcDbLine
 10
7.1605
 20
0.195333
 30
0.0
 11
7.162417
 21
0.194917
 31
0.0
  0
LINE
  5
403
100
AcDbEntity
  8
1
  6
CONTINUOUS
 62
     1
100
AcDbLine
 10
7.1605
 20
0.195417
 30
0.0
 11
7.162417
 21
0.195
 31
0.0
  0
LINE
  5
404
100
AcDbEntity
  8
1
  6
CONTINUOUS
 62
     1
100
AcDbLine
 10
7.1605
 20
0.1955
 30
0.0
 11
7.1625
 21
0.195083
 31
0.0
  0
LINE
  5
405
100
AcDbEntity
  8
1
  6
CONTINUOUS
 62
     1
100
AcDbLine
 10
7.1605
 20
0.195583
 30
0.0
 11
7.1625
 21
0.19525
 31
0.0
  0
LINE
  5
406
100
AcDbEntity
  8
1
  6
CONTINUOUS
 62
     1
100
AcDbLine
 10
7.160583
 20
0.195667
 30
0.0
 11
7.1625
 21
0.195333
 31
0.0
  0
LINE
  5
407
100
AcDbEntity
  8
1
  6
CONTINUOUS
 62
     1
100
AcDbLine
 10
7.160583
 20
0.195833
 30
0.0
 11
7.162583
 21
0.195417
 31
0.0
  0
LINE
  5
408
100
AcDbEntity
  8
1
  6
CONTINUOUS
 62
     1
100
AcDbLine
 10
7.160583
 20
0.195917
 30
0.0
 11
7.162583
 21
0.1955
 31
0.0
  0
LINE
  5
409
100
AcDbEntity
  8
1
  6
CONTINUOUS
 62
     1
100
AcDbLine
 10
7.160583
 20
0.196
 30
0.0
 11
7.162583
 21
0.195667
 31
0.0
  0
LINE
  5
40A
100
AcDbEntity
  8
1
  6
CONTINUOUS
 62
     1
100
AcDbLine
 10
7.160583
 20
0.196083
 30
0.0
 11
7.162583
 21
0.19575
 31
0.0
  0
LINE
  5
40B
100
AcDbEntity
  8
1
  6
CONTINUOUS
 62
     1
100
AcDbLine
 10
7.160667
 20
0.19625
 30
0.0
 11
7.162583
 21
0.195917
 31
0.0
  0
LINE
  5
40C
100
AcDbEntity
  8
1
  6
CONTINUOUS
 62
     1
100
AcDbLine
 10
7.161917
 20
0.196
 30
0.0
 11
7.16175
 21
0.1945
 31
0.0
  0
LINE
  5
40D
100
AcDbEntity
  8
1
  6
CONTINUOUS
 62
     1
100
AcDbLine
 10
7.161167
 20
0.196083
 30
0.0
 11
7.161083
 21
0.194583
 31
0.0
  0
LINE
  5
40E
100
AcDbEntity
  8
1
  6
CONTINUOUS
 62
     1
100
AcDbLine
 10
7.16075
 20
0.196083
 30
0.0
 11
7.160667
 21
0.194583
 31
0.0
  0
LINE
  5
40F
100
AcDbEntity
  8
1
  6
CONTINUOUS
 62
     1
100
AcDbLine
 10
7.161333
 20
0.196083
 30
0.0
 11
7.16125
 21
0.194583
 31
0.0
  0
LINE
  5
410
100
AcDbEntity
  8
1
  6
CONTINUOUS
 62
     1
100
AcDbLine
 10
7.162417
 20
0.196
 30
0.0
 11
7.162333
 21
0.1945
 31
0.0
  0
CIRCLE
  5
411
100
AcDbEntity
  8
1
  6
CONTINUOUS
 62
     1
100
AcDbCircle
 10
7.162167
 20
0.061883
 30
0.0
 40
0.00132
210
0.0
220
0.0
230
1.0
  0
LINE
  5
412
100
AcDbEntity
  8
1
  6
CONTINUOUS
 62
     1
100
AcDbLine
 10
7.160833
 20
0.061833
 30
0.0
 11
7.163417
 21
0.062167
 31
0.0
  0
LINE
  5
413
100
AcDbEntity
  8
1
  6
CONTINUOUS
 62
     1
100
AcDbLine
 10
7.163417
 20
0.062167
 30
0.0
 11
7.161083
 21
0.062667
 31
0.0
  0
LINE
  5
414
100
AcDbEntity
  8
1
  6
CONTINUOUS
 62
     1
100
AcDbLine
 10
7.161083
 20
0.062667
 30
0.0
 11
7.163417
 21
0.061583
 31
0.0
  0
LINE
  5
415
100
AcDbEntity
  8
1
  6
CONTINUOUS
 62
     1
100
AcDbLine
 10
7.163417
 20
0.061583
 30
0.0
 11
7.161
 21
0.061167
 31
0.0
  0
LINE
  5
416
100
AcDbEntity
  8
1
  6
CONTINUOUS
 62
     1
100
AcDbLine
 10
7.161
 20
0.061167
 30
0.0
 11
7.163
 21
0.060833
 31
0.0
  0
LINE
  5
417
100
AcDbEntity
  8
1
  6
CONTINUOUS
 62
     1
100
AcDbLine
 10
7.163
 20
0.060833
 30
0.0
 11
7.163
 21
0.062917
 31
0.0
  0
LINE
  5
418
100
AcDbEntity
  8
1
  6
CONTINUOUS
 62
     1
100
AcDbLine
 10
7.163
 20
0.062917
 30
0.0
 11
7.162083
 21
0.060583
 31
0.0
  0
LINE
  5
419
100
AcDbEntity
  8
1
  6
CONTINUOUS
 62
     1
100
AcDbLine
 10
7.162083
 20
0.060583
 30
0.0
 11
7.162333
 21
0.063167
 31
0.0
  0
LINE
  5
41A
100
AcDbEntity
  8
1
  6
CONTINUOUS
 62
     1
100
AcDbLine
 10
7.162333
 20
0.063167
 30
0.0
 11
7.161333
 21
0.060833
 31
0.0
  0
LINE
  5
41B
100
AcDbEntity
  8
1
  6
CONTINUOUS
 62
     1
100
AcDbLine
 10
7.161333
 20
0.060833
 30
0.0
 11
7.161667
 21
0.063167
 31
0.0
  0
LINE
  5
41C
100
AcDbEntity
  8
1
  6
CONTINUOUS
 62
     1
100
AcDbLine
 10
7.161667
 20
0.063167
 30
0.0
 11
7.1625
 21
0.060583
 31
0.0
  0
LINE
  5
41D
100
AcDbEntity
  8
1
  6
CONTINUOUS
 62
     1
100
AcDbLine
 10
7.1625
 20
0.060583
 30
0.0
 11
7.160917
 21
0.062333
 31
0.0
  0
LINE
  5
41E
100
AcDbEntity
  8
1
  6
CONTINUOUS
 62
     1
100
AcDbLine
 10
7.160917
 20
0.062333
 30
0.0
 11
7.163333
 21
0.0625
 31
0.0
  0
LINE
  5
41F
100
AcDbEntity
  8
1
  6
CONTINUOUS
 62
     1
100
AcDbLine
 10
7.163333
 20
0.0625
 30
0.0
 11
7.161667
 21
0.060667
 31
0.0
  0
LINE
  5
420
100
AcDbEntity
  8
1
  6
CONTINUOUS
 62
     1
100
AcDbLine
 10
7.161667
 20
0.060667
 30
0.0
 11
7.16275
 21
0.063083
 31
0.0
  0
LINE
  5
421
100
AcDbEntity
  8
1
  6
CONTINUOUS
 62
     1
100
AcDbLine
 10
7.16275
 20
0.063083
 30
0.0
 11
7.161083
 21
0.062667
 31
0.0
  0
LINE
  5
422
100
AcDbEntity
  8
1
  6
CONTINUOUS
 62
     1
100
AcDbLine
 10
7.161083
 20
0.062667
 30
0.0
 11
7.161
 21
0.061167
 31
0.0
  0
LINE
  5
423
100
AcDbEntity
  8
1
  6
CONTINUOUS
 62
     1
100
AcDbLine
 10
7.161
 20
0.061167
 30
0.0
 11
7.162083
 21
0.060583
 31
0.0
  0
LINE
  5
424
100
AcDbEntity
  8
1
  6
CONTINUOUS
 62
     1
100
AcDbLine
 10
7.162083
 20
0.060583
 30
0.0
 11
7.163
 21
0.060833
 31
0.0
  0
LINE
  5
425
100
AcDbEntity
  8
1
  6
CONTINUOUS
 62
     1
100
AcDbLine
 10
7.163
 20
0.060833
 30
0.0
 11
7.163417
 21
0.061583
 31
0.0
  0
LINE
  5
426
100
AcDbEntity
  8
1
  6
CONTINUOUS
 62
     1
100
AcDbLine
 10
7.163417
 20
0.061583
 30
0.0
 11
7.163333
 21
0.0625
 31
0.0
  0
LINE
  5
427
100
AcDbEntity
  8
1
  6
CONTINUOUS
 62
     1
100
AcDbLine
 10
7.163333
 20
0.0625
 30
0.0
 11
7.16275
 21
0.063083
 31
0.0
  0
LINE
  5
428
100
AcDbEntity
  8
1
  6
CONTINUOUS
 62
     1
100
AcDbLine
 10
7.16275
 20
0.063083
 30
0.0
 11
7.162083
 21
0.062
 31
0.0
  0
LINE
  5
429
100
AcDbEntity
  8
1
  6
CONTINUOUS
 62
     1
100
AcDbLine
 10
7.162083
 20
0.062
 30
0.0
 11
7.16325
 21
0.061083
 31
0.0
  0
LINE
  5
42A
100
AcDbEntity
  8
1
  6
CONTINUOUS
 62
     1
100
AcDbLine
 10
7.16325
 20
0.061083
 30
0.0
 11
7.161333
 21
0.060833
 31
0.0
  0
LINE
  5
42B
100
AcDbEntity
  8
1
  6
CONTINUOUS
 62
     1
100
AcDbLine
 10
7.161333
 20
0.060833
 30
0.0
 11
7.162083
 21
0.062
 31
0.0
  0
LINE
  5
42C
100
AcDbEntity
  8
1
  6
CONTINUOUS
 62
     1
100
AcDbLine
 10
7.162083
 20
0.062
 30
0.0
 11
7.161
 21
0.0625
 31
0.0
  0
LINE
  5
42D
100
AcDbEntity
  8
1
  6
CONTINUOUS
 62
     1
100
AcDbLine
 10
7.161
 20
0.0625
 30
0.0
 11
7.162
 21
0.063167
 31
0.0
  0
LINE
  5
42E
100
AcDbEntity
  8
1
  6
CONTINUOUS
 62
     1
100
AcDbLine
 10
7.162
 20
0.063167
 30
0.0
 11
7.162083
 21
0.062083
 31
0.0
  0
LINE
  5
42F
100
AcDbEntity
  8
1
  6
CONTINUOUS
 62
     1
100
AcDbLine
 10
7.162083
 20
0.062083
 30
0.0
 11
7.162917
 21
0.060833
 31
0.0
  0
LINE
  5
430
100
AcDbEntity
  8
1
  6
CONTINUOUS
 62
     1
100
AcDbLine
 10
7.162917
 20
0.060833
 30
0.0
 11
7.160917
 21
0.062083
 31
0.0
  0
LINE
  5
431
100
AcDbEntity
  8
1
  6
CONTINUOUS
 62
     1
100
AcDbLine
 10
7.160917
 20
0.062083
 30
0.0
 11
7.16225
 21
0.062417
 31
0.0
  0
LINE
  5
432
100
AcDbEntity
  8
1
  6
CONTINUOUS
 62
     1
100
AcDbLine
 10
7.16225
 20
0.062417
 30
0.0
 11
7.163
 21
0.062917
 31
0.0
  0
LINE
  5
433
100
AcDbEntity
  8
1
  6
CONTINUOUS
 62
     1
100
AcDbLine
 10
7.16125
 20
0.062667
 30
0.0
 11
7.161167
 21
0.061167
 31
0.0
  0
LINE
  5
434
100
AcDbEntity
  8
1
  6
CONTINUOUS
 62
     1
100
AcDbLine
 10
7.161333
 20
0.062667
 30
0.0
 11
7.16125
 21
0.061167
 31
0.0
  0
LINE
  5
435
100
AcDbEntity
  8
1
  6
CONTINUOUS
 62
     1
100
AcDbLine
 10
7.1615
 20
0.062667
 30
0.0
 11
7.161417
 21
0.061167
 31
0.0
  0
LINE
  5
436
100
AcDbEntity
  8
1
  6
CONTINUOUS
 62
     1
100
AcDbLine
 10
7.161583
 20
0.062667
 30
0.0
 11
7.1615
 21
0.061167
 31
0.0
  0
LINE
  5
437
100
AcDbEntity
  8
1
  6
CONTINUOUS
 62
     1
100
AcDbLine
 10
7.16175
 20
0.062667
 30
0.0
 11
7.161667
 21
0.061167
 31
0.0
  0
LINE
  5
438
100
AcDbEntity
  8
1
  6
CONTINUOUS
 62
     1
100
AcDbLine
 10
7.161917
 20
0.062667
 30
0.0
 11
7.161833
 21
0.061167
 31
0.0
  0
LINE
  5
439
100
AcDbEntity
  8
1
  6
CONTINUOUS
 62
     1
100
AcDbLine
 10
7.162083
 20
0.062667
 30
0.0
 11
7.162
 21
0.061167
 31
0.0
  0
LINE
  5
43A
100
AcDbEntity
  8
1
  6
CONTINUOUS
 62
     1
100
AcDbLine
 10
7.162167
 20
0.062667
 30
0.0
 11
7.162083
 21
0.061167
 31
0.0
  0
LINE
  5
43B
100
AcDbEntity
  8
1
  6
CONTINUOUS
 62
     1
100
AcDbLine
 10
7.16225
 20
0.062667
 30
0.0
 11
7.162167
 21
0.061167
 31
0.0
  0
LINE
  5
43C
100
AcDbEntity
  8
1
  6
CONTINUOUS
 62
     1
100
AcDbLine
 10
7.162417
 20
0.062583
 30
0.0
 11
7.16225
 21
0.061083
 31
0.0
  0
LINE
  5
43D
100
AcDbEntity
  8
1
  6
CONTINUOUS
 62
     1
100
AcDbLine
 10
7.162667
 20
0.062583
 30
0.0
 11
7.162583
 21
0.061083
 31
0.0
  0
LINE
  5
43E
100
AcDbEntity
  8
1
  6
CONTINUOUS
 62
     1
100
AcDbLine
 10
7.162667
 20
0.062583
 30
0.0
 11
7.162583
 21
0.061083
 31
0.0
  0
LINE
  5
43F
100
AcDbEntity
  8
1
  6
CONTINUOUS
 62
     1
100
AcDbLine
 10
7.16275
 20
0.062583
 30
0.0
 11
7.162667
 21
0.061083
 31
0.0
  0
LINE
  5
440
100
AcDbEntity
  8
1
  6
CONTINUOUS
 62
     1
100
AcDbLine
 10
7.162833
 20
0.062583
 30
0.0
 11
7.16275
 21
0.061083
 31
0.0
  0
LINE
  5
441
100
AcDbEntity
  8
1
  6
CONTINUOUS
 62
     1
100
AcDbLine
 10
7.163
 20
0.062583
 30
0.0
 11
7.162917
 21
0.061083
 31
0.0
  0
LINE
  5
442
100
AcDbEntity
  8
1
  6
CONTINUOUS
 62
     1
100
AcDbLine
 10
7.162917
 20
0.062583
 30
0.0
 11
7.162833
 21
0.061083
 31
0.0
  0
LINE
  5
443
100
AcDbEntity
  8
1
  6
CONTINUOUS
 62
     1
100
AcDbLine
 10
7.163167
 20
0.062583
 30
0.0
 11
7.163083
 21
0.061083
 31
0.0
  0
LINE
  5
444
100
AcDbEntity
  8
1
  6
CONTINUOUS
 62
     1
100
AcDbLine
 10
7.163333
 20
0.062583
 30
0.0
 11
7.16325
 21
0.061083
 31
0.0
  0
LINE
  5
445
100
AcDbEntity
  8
1
  6
CONTINUOUS
 62
     1
100
AcDbLine
 10
7.161
 20
0.06125
 30
0.0
 11
7.163
 21
0.060917
 31
0.0
  0
LINE
  5
446
100
AcDbEntity
  8
1
  6
CONTINUOUS
 62
     1
100
AcDbLine
 10
7.161083
 20
0.061333
 30
0.0
 11
7.163
 21
0.061
 31
0.0
  0
LINE
  5
447
100
AcDbEntity
  8
1
  6
CONTINUOUS
 62
     1
100
AcDbLine
 10
7.161083
 20
0.061417
 30
0.0
 11
7.163
 21
0.061083
 31
0.0
  0
LINE
  5
448
100
AcDbEntity
  8
1
  6
CONTINUOUS
 62
     1
100
AcDbLine
 10
7.161083
 20
0.0615
 30
0.0
 11
7.163083
 21
0.061167
 31
0.0
  0
LINE
  5
449
100
AcDbEntity
  8
1
  6
CONTINUOUS
 62
     1
100
AcDbLine
 10
7.161083
 20
0.06175
 30
0.0
 11
7.163083
 21
0.061333
 31
0.0
  0
LINE
  5
44A
100
AcDbEntity
  8
1
  6
CONTINUOUS
 62
     1
100
AcDbLine
 10
7.161167
 20
0.061917
 30
0.0
 11
7.163083
 21
0.0615
 31
0.0
  0
LINE
  5
44B
100
AcDbEntity
  8
1
  6
CONTINUOUS
 62
     1
100
AcDbLine
 10
7.161167
 20
0.062
 30
0.0
 11
7.163083
 21
0.061583
 31
0.0
  0
LINE
  5
44C
100
AcDbEntity
  8
1
  6
CONTINUOUS
 62
     1
100
AcDbLine
 10
7.161167
 20
0.062083
 30
0.0
 11
7.163167
 21
0.061667
 31
0.0
  0
LINE
  5
44D
100
AcDbEntity
  8
1
  6
CONTINUOUS
 62
     1
100
AcDbLine
 10
7.161167
 20
0.062167
 30
0.0
 11
7.163167
 21
0.061833
 31
0.0
  0
LINE
  5
44E
100
AcDbEntity
  8
1
  6
CONTINUOUS
 62
     1
100
AcDbLine
 10
7.16125
 20
0.06225
 30
0.0
 11
7.163167
 21
0.061917
 31
0.0
  0
LINE
  5
44F
100
AcDbEntity
  8
1
  6
CONTINUOUS
 62
     1
100
AcDbLine
 10
7.16125
 20
0.062417
 30
0.0
 11
7.16325
 21
0.062
 31
0.0
  0
LINE
  5
450
100
AcDbEntity
  8
1
  6
CONTINUOUS
 62
     1
100
AcDbLine
 10
7.16125
 20
0.0625
 30
0.0
 11
7.16325
 21
0.062083
 31
0.0
  0
LINE
  5
451
100
AcDbEntity
  8
1
  6
CONTINUOUS
 62
     1
100
AcDbLine
 10
7.16125
 20
0.062583
 30
0.0
 11
7.16325
 21
0.06225
 31
0.0
  0
LINE
  5
452
100
AcDbEntity
  8
1
  6
CONTINUOUS
 62
     1
100
AcDbLine
 10
7.16125
 20
0.062667
 30
0.0
 11
7.16325
 21
0.062333
 31
0.0
  0
LINE
  5
453
100
AcDbEntity
  8
1
  6
CONTINUOUS
 62
     1
100
AcDbLine
 10
7.161333
 20
0.062833
 30
0.0
 11
7.16325
 21
0.0625
 31
0.0
  0
LINE
  5
454
100
AcDbEntity
  8
1
  6
CONTINUOUS
 62
     1
100
AcDbLine
 10
7.162583
 20
0.062583
 30
0.0
 11
7.162417
 21
0.061083
 31
0.0
  0
LINE
  5
455
100
AcDbEntity
  8
1
  6
CONTINUOUS
 62
     1
100
AcDbLine
 10
7.161833
 20
0.062667
 30
0.0
 11
7.16175
 21
0.061167
 31
0.0
  0
LINE
  5
456
100
AcDbEntity
  8
1
  6
CONTINUOUS
 62
     1
100
AcDbLine
 10
7.161417
 20
0.062667
 30
0.0
 11
7.161333
 21
0.061167
 31
0.0
  0
LINE
  5
457
100
AcDbEntity
  8
1
  6
CONTINUOUS
 62
     1
100
AcDbLine
 10
7.162
 20
0.062667
 30
0.0
 11
7.161917
 21
0.061167
 31
0.0
  0
LINE
  5
458
100
AcDbEntity
  8
1
  6
CONTINUOUS
 62
     1
100
AcDbLine
 10
7.163083
 20
0.062583
 30
0.0
 11
7.163
 21
0.061083
 31
0.0
  0
CIRCLE
  5
459
100
AcDbEntity
  8
1
  6
CONTINUOUS
 62
     1
100
AcDbCircle
 10
7.21905
 20
0.062417
 30
0.0
 40
0.00132
210
0.0
220
0.0
230
1.0
  0
LINE
  5
45A
100
AcDbEntity
  8
1
  6
CONTINUOUS
 62
     1
100
AcDbLine
 10
7.219
 20
0.06375
 30
0.0
 11
7.219333
 21
0.061167
 31
0.0
  0
LINE
  5
45B
100
AcDbEntity
  8
1
  6
CONTINUOUS
 62
     1
100
AcDbLine
 10
7.219333
 20
0.061167
 30
0.0
 11
7.219833
 21
0.0635
 31
0.0
  0
LINE
  5
45C
100
AcDbEntity
  8
1
  6
CONTINUOUS
 62
     1
100
AcDbLine
 10
7.219833
 20
0.0635
 30
0.0
 11
7.21875
 21
0.061167
 31
0.0
  0
LINE
  5
45D
100
AcDbEntity
  8
1
  6
CONTINUOUS
 62
     1
100
AcDbLine
 10
7.21875
 20
0.061167
 30
0.0
 11
7.218333
 21
0.063583
 31
0.0
  0
LINE
  5
45E
100
AcDbEntity
  8
1
  6
CONTINUOUS
 62
     1
100
AcDbLine
 10
7.218333
 20
0.063583
 30
0.0
 11
7.218
 21
0.061583
 31
0.0
  0
LINE
  5
45F
100
AcDbEntity
  8
1
  6
CONTINUOUS
 62
     1
100
AcDbLine
 10
7.218
 20
0.061583
 30
0.0
 11
7.220083
 21
0.061583
 31
0.0
  0
LINE
  5
460
100
AcDbEntity
  8
1
  6
CONTINUOUS
 62
     1
100
AcDbLine
 10
7.220083
 20
0.061583
 30
0.0
 11
7.21775
 21
0.0625
 31
0.0
  0
LINE
  5
461
100
AcDbEntity
  8
1
  6
CONTINUOUS
 62
     1
100
AcDbLine
 10
7.21775
 20
0.0625
 30
0.0
 11
7.220333
 21
0.06225
 31
0.0
  0
LINE
  5
462
100
AcDbEntity
  8
1
  6
CONTINUOUS
 62
     1
100
AcDbLine
 10
7.220333
 20
0.06225
 30
0.0
 11
7.218
 21
0.06325
 31
0.0
  0
LINE
  5
463
100
AcDbEntity
  8
1
  6
CONTINUOUS
 62
     1
100
AcDbLine
 10
7.218
 20
0.06325
 30
0.0
 11
7.220333
 21
0.062917
 31
0.0
  0
LINE
  5
464
100
AcDbEntity
  8
1
  6
CONTINUOUS
 62
     1
100
AcDbLine
 10
7.220333
 20
0.062917
 30
0.0
 11
7.21775
 21
0.062083
 31
0.0
  0
LINE
  5
465
100
AcDbEntity
  8
1
  6
CONTINUOUS
 62
     1
100
AcDbLine
 10
7.21775
 20
0.062083
 30
0.0
 11
7.2195
 21
0.063667
 31
0.0
  0
LINE
  5
466
100
AcDbEntity
  8
1
  6
CONTINUOUS
 62
     1
100
AcDbLine
 10
7.2195
 20
0.063667
 30
0.0
 11
7.219667
 21
0.06125
 31
0.0
  0
LINE
  5
467
100
AcDbEntity
  8
1
  6
CONTINUOUS
 62
     1
100
AcDbLine
 10
7.219667
 20
0.06125
 30
0.0
 11
7.217833
 21
0.062917
 31
0.0
  0
LINE
  5
468
100
AcDbEntity
  8
1
  6
CONTINUOUS
 62
     1
100
AcDbLine
 10
7.217833
 20
0.062917
 30
0.0
 11
7.22025
 21
0.061833
 31
0.0
  0
LINE
  5
469
100
AcDbEntity
  8
1
  6
CONTINUOUS
 62
     1
100
AcDbLine
 10
7.22025
 20
0.061833
 30
0.0
 11
7.219833
 21
0.0635
 31
0.0
  0
LINE
  5
46A
100
AcDbEntity
  8
1
  6
CONTINUOUS
 62
     1
100
AcDbLine
 10
7.219833
 20
0.0635
 30
0.0
 11
7.218333
 21
0.063583
 31
0.0
  0
LINE
  5
46B
100
AcDbEntity
  8
1
  6
CONTINUOUS
 62
     1
100
AcDbLine
 10
7.218333
 20
0.063583
 30
0.0
 11
7.21775
 21
0.0625
 31
0.0
  0
LINE
  5
46C
100
AcDbEntity
  8
1
  6
CONTINUOUS
 62
     1
100
AcDbLine
 10
7.21775
 20
0.0625
 30
0.0
 11
7.218
 21
0.061583
 31
0.0
  0
LINE
  5
46D
100
AcDbEntity
  8
1
  6
CONTINUOUS
 62
     1
100
AcDbLine
 10
7.218
 20
0.061583
 30
0.0
 11
7.21875
 21
0.061167
 31
0.0
  0
LINE
  5
46E
100
AcDbEntity
  8
1
  6
CONTINUOUS
 62
     1
100
AcDbLine
 10
7.21875
 20
0.061167
 30
0.0
 11
7.219667
 21
0.06125
 31
0.0
  0
LINE
  5
46F
100
AcDbEntity
  8
1
  6
CONTINUOUS
 62
     1
100
AcDbLine
 10
7.219667
 20
0.06125
 30
0.0
 11
7.22025
 21
0.061833
 31
0.0
  0
LINE
  5
470
100
AcDbEntity
  8
1
  6
CONTINUOUS
 62
     1
100
AcDbLine
 10
7.22025
 20
0.061833
 30
0.0
 11
7.219167
 21
0.0625
 31
0.0
  0
LINE
  5
471
100
AcDbEntity
  8
1
  6
CONTINUOUS
 62
     1
100
AcDbLine
 10
7.219167
 20
0.0625
 30
0.0
 11
7.21825
 21
0.061333
 31
0.0
  0
LINE
  5
472
100
AcDbEntity
  8
1
  6
CONTINUOUS
 62
     1
100
AcDbLine
 10
7.21825
 20
0.061333
 30
0.0
 11
7.218
 21
0.06325
 31
0.0
  0
LINE
  5
473
100
AcDbEntity
  8
1
  6
CONTINUOUS
 62
     1
100
AcDbLine
 10
7.218
 20
0.06325
 30
0.0
 11
7.219167
 21
0.0625
 31
0.0
  0
LINE
  5
474
100
AcDbEntity
  8
1
  6
CONTINUOUS
 62
     1
100
AcDbLine
 10
7.219167
 20
0.0625
 30
0.0
 11
7.219667
 21
0.063583
 31
0.0
  0
LINE
  5
475
100
AcDbEntity
  8
1
  6
CONTINUOUS
 62
     1
100
AcDbLine
 10
7.219667
 20
0.063583
 30
0.0
 11
7.220333
 21
0.062583
 31
0.0
  0
LINE
  5
476
100
AcDbEntity
  8
1
  6
CONTINUOUS
 62
     1
100
AcDbLine
 10
7.220333
 20
0.062583
 30
0.0
 11
7.21925
 21
0.0625
 31
0.0
  0
LINE
  5
477
100
AcDbEntity
  8
1
  6
CONTINUOUS
 62
     1
100
AcDbLine
 10
7.21925
 20
0.0625
 30
0.0
 11
7.218
 21
0.061667
 31
0.0
  0
LINE
  5
478
100
AcDbEntity
  8
1
  6
CONTINUOUS
 62
     1
100
AcDbLine
 10
7.218
 20
0.061667
 30
0.0
 11
7.21925
 21
0.063667
 31
0.0
  0
LINE
  5
479
100
AcDbEntity
  8
1
  6
CONTINUOUS
 62
     1
100
AcDbLine
 10
7.21925
 20
0.063667
 30
0.0
 11
7.219583
 21
0.062333
 31
0.0
  0
LINE
  5
47A
100
AcDbEntity
  8
1
  6
CONTINUOUS
 62
     1
100
AcDbLine
 10
7.219583
 20
0.062333
 30
0.0
 11
7.220083
 21
0.061583
 31
0.0
  0
LINE
  5
47B
100
AcDbEntity
  8
1
  6
CONTINUOUS
 62
     1
100
AcDbLine
 10
7.219833
 20
0.063333
 30
0.0
 11
7.218333
 21
0.063417
 31
0.0
  0
LINE
  5
47C
100
AcDbEntity
  8
1
  6
CONTINUOUS
 62
     1
100
AcDbLine
 10
7.219833
 20
0.06325
 30
0.0
 11
7.218333
 21
0.063333
 31
0.0
  0
LINE
  5
47D
100
AcDbEntity
  8
1
  6
CONTINUOUS
 62
     1
100
AcDbLine
 10
7.219833
 20
0.063083
 30
0.0
 11
7.218333
 21
0.063167
 31
0.0
  0
LINE
  5
47E
100
AcDbEntity
  8
1
  6
CONTINUOUS
 62
     1
100
AcDbLine
 10
7.219833
 20
0.063
 30
0.0
 11
7.218333
 21
0.063083
 31
0.0
  0
LINE
  5
47F
100
AcDbEntity
  8
1
  6
CONTINUOUS
 62
     1
100
AcDbLine
 10
7.219833
 20
0.062833
 30
0.0
 11
7.218333
 21
0.062917
 31
0.0
  0
LINE
  5
480
100
AcDbEntity
  8
1
  6
CONTINUOUS
 62
     1
100
AcDbLine
 10
7.219833
 20
0.062667
 30
0.0
 11
7.218333
 21
0.06275
 31
0.0
  0
LINE
  5
481
100
AcDbEntity
  8
1
  6
CONTINUOUS
 62
     1
100
AcDbLine
 10
7.219833
 20
0.0625
 30
0.0
 11
7.218333
 21
0.062583
 31
0.0
  0
LINE
  5
482
100
AcDbEntity
  8
1
  6
CONTINUOUS
 62
     1
100
AcDbLine
 10
7.219833
 20
0.062417
 30
0.0
 11
7.218333
 21
0.0625
 31
0.0
  0
LINE
  5
483
100
AcDbEntity
  8
1
  6
CONTINUOUS
 62
     1
100
AcDbLine
 10
7.219833
 20
0.062333
 30
0.0
 11
7.218333
 21
0.062417
 31
0.0
  0
LINE
  5
484
100
AcDbEntity
  8
1
  6
CONTINUOUS
 62
     1
100
AcDbLine
 10
7.21975
 20
0.062167
 30
0.0
 11
7.21825
 21
0.062333
 31
0.0
  0
LINE
  5
485
100
AcDbEntity
  8
1
  6
CONTINUOUS
 62
     1
100
AcDbLine
 10
7.21975
 20
0.061917
 30
0.0
 11
7.21825
 21
0.062
 31
0.0
  0
LINE
  5
486
100
AcDbEntity
  8
1
  6
CONTINUOUS
 62
     1
100
AcDbLine
 10
7.21975
 20
0.061917
 30
0.0
 11
7.21825
 21
0.062
 31
0.0
  0
LINE
  5
487
100
AcDbEntity
  8
1
  6
CONTINUOUS
 62
     1
100
AcDbLine
 10
7.21975
 20
0.061833
 30
0.0
 11
7.21825
 21
0.061917
 31
0.0
  0
LINE
  5
488
100
AcDbEntity
  8
1
  6
CONTINUOUS
 62
     1
100
AcDbLine
 10
7.21975
 20
0.06175
 30
0.0
 11
7.21825
 21
0.061833
 31
0.0
  0
LINE
  5
489
100
AcDbEntity
  8
1
  6
CONTINUOUS
 62
     1
100
AcDbLine
 10
7.21975
 20
0.061583
 30
0.0
 11
7.21825
 21
0.061667
 31
0.0
  0
LINE
  5
48A
100
AcDbEntity
  8
1
  6
CONTINUOUS
 62
     1
100
AcDbLine
 10
7.21975
 20
0.061667
 30
0.0
 11
7.21825
 21
0.06175
 31
0.0
  0
LINE
  5
48B
100
AcDbEntity
  8
1
  6
CONTINUOUS
 62
     1
100
AcDbLine
 10
7.21975
 20
0.061417
 30
0.0
 11
7.21825
 21
0.0615
 31
0.0
  0
LINE
  5
48C
100
AcDbEntity
  8
1
  6
CONTINUOUS
 62
     1
100
AcDbLine
 10
7.21975
 20
0.06125
 30
0.0
 11
7.21825
 21
0.061333
 31
0.0
  0
LINE
  5
48D
100
AcDbEntity
  8
1
  6
CONTINUOUS
 62
     1
100
AcDbLine
 10
7.218417
 20
0.063583
 30
0.0
 11
7.218083
 21
0.061583
 31
0.0
  0
LINE
  5
48E
100
AcDbEntity
  8
1
  6
CONTINUOUS
 62
     1
100
AcDbLine
 10
7.2185
 20
0.0635
 30
0.0
 11
7.218167
 21
0.061583
 31
0.0
  0
LINE
  5
48F
100
AcDbEntity
  8
1
  6
CONTINUOUS
 62
     1
100
AcDbLine
 10
7.218583
 20
0.0635
 30
0.0
 11
7.21825
 21
0.061583
 31
0.0
  0
LINE
  5
490
100
AcDbEntity
  8
1
  6
CONTINUOUS
 62
     1
100
AcDbLine
 10
7.218667
 20
0.0635
 30
0.0
 11
7.218333
 21
0.0615
 31
0.0
  0
LINE
  5
491
100
AcDbEntity
  8
1
  6
CONTINUOUS
 62
     1
100
AcDbLine
 10
7.218917
 20
0.0635
 30
0.0
 11
7.2185
 21
0.0615
 31
0.0
  0
LINE
  5
492
100
AcDbEntity
  8
1
  6
CONTINUOUS
 62
     1
100
AcDbLine
 10
7.219083
 20
0.063417
 30
0.0
 11
7.218667
 21
0.0615
 31
0.0
  0
LINE
  5
493
100
AcDbEntity
  8
1
  6
CONTINUOUS
 62
     1
100
AcDbLine
 10
7.219167
 20
0.063417
 30
0.0
 11
7.21875
 21
0.0615
 31
0.0
  0
LINE
  5
494
100
AcDbEntity
  8
1
  6
CONTINUOUS
 62
     1
100
AcDbLine
 10
7.21925
 20
0.063417
 30
0.0
 11
7.218833
 21
0.061417
 31
0.0
  0
LINE
  5
495
100
AcDbEntity
  8
1
  6
CONTINUOUS
 62
     1
100
AcDbLine
 10
7.219333
 20
0.063417
 30
0.0
 11
7.219
 21
0.061417
 31
0.0
  0
LINE
  5
496
100
AcDbEntity
  8
1
  6
CONTINUOUS
 62
     1
100
AcDbLine
 10
7.219417
 20
0.063333
 30
0.0
 11
7.219083
 21
0.061417
 31
0.0
  0
LINE
  5
497
100
AcDbEntity
  8
1
  6
CONTINUOUS
 62
     1
100
AcDbLine
 10
7.219583
 20
0.063333
 30
0.0
 11
7.219167
 21
0.061333
 31
0.0
  0
LINE
  5
498
100
AcDbEntity
  8
1
  6
CONTINUOUS
 62
     1
100
AcDbLine
 10
7.219667
 20
0.063333
 30
0.0
 11
7.21925
 21
0.061333
 31
0.0
  0
LINE
  5
499
100
AcDbEntity
  8
1
  6
CONTINUOUS
 62
     1
100
AcDbLine
 10
7.21975
 20
0.063333
 30
0.0
 11
7.219417
 21
0.061333
 31
0.0
  0
LINE
  5
49A
100
AcDbEntity
  8
1
  6
CONTINUOUS
 62
     1
100
AcDbLine
 10
7.219833
 20
0.063333
 30
0.0
 11
7.2195
 21
0.061333
 31
0.0
  0
LINE
  5
49B
100
AcDbEntity
  8
1
  6
CONTINUOUS
 62
     1
100
AcDbLine
 10
7.22
 20
0.06325
 30
0.0
 11
7.219667
 21
0.061333
 31
0.0
  0
LINE
  5
49C
100
AcDbEntity
  8
1
  6
CONTINUOUS
 62
     1
100
AcDbLine
 10
7.21975
 20
0.062
 30
0.0
 11
7.21825
 21
0.062167
 31
0.0
  0
LINE
  5
49D
100
AcDbEntity
  8
1
  6
CONTINUOUS
 62
     1
100
AcDbLine
 10
7.219833
 20
0.06275
 30
0.0
 11
7.218333
 21
0.062833
 31
0.0
  0
LINE
  5
49E
100
AcDbEntity
  8
1
  6
CONTINUOUS
 62
     1
100
AcDbLine
 10
7.219833
 20
0.063167
 30
0.0
 11
7.218333
 21
0.06325
 31
0.0
  0
LINE
  5
49F
100
AcDbEntity
  8
1
  6
CONTINUOUS
 62
     1
100
AcDbLine
 10
7.219833
 20
0.062583
 30
0.0
 11
7.218333
 21
0.062667
 31
0.0
  0
LINE
  5
4A0
100
AcDbEntity
  8
1
  6
CONTINUOUS
 62
     1
100
AcDbLine
 10
7.21975
 20
0.0615
 30
0.0
 11
7.21825
 21
0.061583
 31
0.0
  0
CIRCLE
  5
4A1
100
AcDbEntity
  8
1
  6
CONTINUOUS
 62
     1
100
AcDbCircle
 10
7.219117
 20
0.197083
 30
0.0
 40
0.00132
210
0.0
220
0.0
230
1.0
  0
LINE
  5
4A2
100
AcDbEntity
  8
1
  6
CONTINUOUS
 62
     1
100
AcDbLine
 10
7.219167
 20
0.19575
 30
0.0
 11
7.218833
 21
0.198333
 31
0.0
  0
LINE
  5
4A3
100
AcDbEntity
  8
1
  6
CONTINUOUS
 62
     1
100
AcDbLine
 10
7.218833
 20
0.198333
 30
0.0
 11
7.218333
 21
0.196
 31
0.0
  0
LINE
  5
4A4
100
AcDbEntity
  8
1
  6
CONTINUOUS
 62
     1
100
AcDbLine
 10
7.218333
 20
0.196
 30
0.0
 11
7.219417
 21
0.198333
 31
0.0
  0
LINE
  5
4A5
100
AcDbEntity
  8
1
  6
CONTINUOUS
 62
     1
100
AcDbLine
 10
7.219417
 20
0.198333
 30
0.0
 11
7.219833
 21
0.195917
 31
0.0
  0
LINE
  5
4A6
100
AcDbEntity
  8
1
  6
CONTINUOUS
 62
     1
100
AcDbLine
 10
7.219833
 20
0.195917
 30
0.0
 11
7.220167
 21
0.197917
 31
0.0
  0
LINE
  5
4A7
100
AcDbEntity
  8
1
  6
CONTINUOUS
 62
     1
100
AcDbLine
 10
7.220167
 20
0.197917
 30
0.0
 11
7.218083
 21
0.197917
 31
0.0
  0
LINE
  5
4A8
100
AcDbEntity
  8
1
  6
CONTINUOUS
 62
     1
100
AcDbLine
 10
7.218083
 20
0.197917
 30
0.0
 11
7.220417
 21
0.197
 31
0.0
  0
LINE
  5
4A9
100
AcDbEntity
  8
1
  6
CONTINUOUS
 62
     1
100
AcDbLine
 10
7.220417
 20
0.197
 30
0.0
 11
7.217833
 21
0.19725
 31
0.0
  0
LINE
  5
4AA
100
AcDbEntity
  8
1
  6
CONTINUOUS
 62
     1
100
AcDbLine
 10
7.217833
 20
0.19725
 30
0.0
 11
7.220167
 21
0.19625
 31
0.0
  0
LINE
  5
4AB
100
AcDbEntity
  8
1
  6
CONTINUOUS
 62
     1
100
AcDbLine
 10
7.220167
 20
0.19625
 30
0.0
 11
7.217833
 21
0.196583
 31
0.0
  0
LINE
  5
4AC
100
AcDbEntity
  8
1
  6
CONTINUOUS
 62
     1
100
AcDbLine
 10
7.217833
 20
0.196583
 30
0.0
 11
7.220417
 21
0.197417
 31
0.0
  0
LINE
  5
4AD
100
AcDbEntity
  8
1
  6
CONTINUOUS
 62
     1
100
AcDbLine
 10
7.220417
 20
0.197417
 30
0.0
 11
7.218667
 21
0.195833
 31
0.0
  0
LINE
  5
4AE
100
AcDbEntity
  8
1
  6
CONTINUOUS
 62
     1
100
AcDbLine
 10
7.218667
 20
0.195833
 30
0.0
 11
7.2185
 21
0.19825
 31
0.0
  0
LINE
  5
4AF
100
AcDbEntity
  8
1
  6
CONTINUOUS
 62
     1
100
AcDbLine
 10
7.2185
 20
0.19825
 30
0.0
 11
7.220333
 21
0.196583
 31
0.0
  0
LINE
  5
4B0
100
AcDbEntity
  8
1
  6
CONTINUOUS
 62
     1
100
AcDbLine
 10
7.220333
 20
0.196583
 30
0.0
 11
7.217917
 21
0.197667
 31
0.0
  0
LINE
  5
4B1
100
AcDbEntity
  8
1
  6
CONTINUOUS
 62
     1
100
AcDbLine
 10
7.217917
 20
0.197667
 30
0.0
 11
7.218333
 21
0.196
 31
0.0
  0
LINE
  5
4B2
100
AcDbEntity
  8
1
  6
CONTINUOUS
 62
     1
100
AcDbLine
 10
7.218333
 20
0.196
 30
0.0
 11
7.219833
 21
0.195917
 31
0.0
  0
LINE
  5
4B3
100
AcDbEntity
  8
1
  6
CONTINUOUS
 62
     1
100
AcDbLine
 10
7.219833
 20
0.195917
 30
0.0
 11
7.220417
 21
0.197
 31
0.0
  0
LINE
  5
4B4
100
AcDbEntity
  8
1
  6
CONTINUOUS
 62
     1
100
AcDbLine
 10
7.220417
 20
0.197
 30
0.0
 11
7.220167
 21
0.197917
 31
0.0
  0
LINE
  5
4B5
100
AcDbEntity
  8
1
  6
CONTINUOUS
 62
     1
100
AcDbLine
 10
7.220167
 20
0.197917
 30
0.0
 11
7.219417
 21
0.198333
 31
0.0
  0
LINE
  5
4B6
100
AcDbEntity
  8
1
  6
CONTINUOUS
 62
     1
100
AcDbLine
 10
7.219417
 20
0.198333
 30
0.0
 11
7.2185
 21
0.19825
 31
0.0
  0
LINE
  5
4B7
100
AcDbEntity
  8
1
  6
CONTINUOUS
 62
     1
100
AcDbLine
 10
7.2185
 20
0.19825
 30
0.0
 11
7.217917
 21
0.197667
 31
0.0
  0
LINE
  5
4B8
100
AcDbEntity
  8
1
  6
CONTINUOUS
 62
     1
100
AcDbLine
 10
7.217917
 20
0.197667
 30
0.0
 11
7.219
 21
0.197
 31
0.0
  0
LINE
  5
4B9
100
AcDbEntity
  8
1
  6
CONTINUOUS
 62
     1
100
AcDbLine
 10
7.219
 20
0.197
 30
0.0
 11
7.219917
 21
0.198167
 31
0.0
  0
LINE
  5
4BA
100
AcDbEntity
  8
1
  6
CONTINUOUS
 62
     1
100
AcDbLine
 10
7.219917
 20
0.198167
 30
0.0
 11
7.220167
 21
0.19625
 31
0.0
  0
LINE
  5
4BB
100
AcDbEntity
  8
1
  6
CONTINUOUS
 62
     1
100
AcDbLine
 10
7.220167
 20
0.19625
 30
0.0
 11
7.219
 21
0.197
 31
0.0
  0
LINE
  5
4BC
100
AcDbEntity
  8
1
  6
CONTINUOUS
 62
     1
100
AcDbLine
 10
7.219
 20
0.197
 30
0.0
 11
7.2185
 21
0.195917
 31
0.0
  0
LINE
  5
4BD
100
AcDbEntity
  8
1
  6
CONTINUOUS
 62
     1
100
AcDbLine
 10
7.2185
 20
0.195917
 30
0.0
 11
7.217833
 21
0.196917
 31
0.0
  0
LINE
  5
4BE
100
AcDbEntity
  8
1
  6
CONTINUOUS
 62
     1
100
AcDbLine
 10
7.217833
 20
0.196917
 30
0.0
 11
7.218917
 21
0.197
 31
0.0
  0
LINE
  5
4BF
100
AcDbEntity
  8
1
  6
CONTINUOUS
 62
     1
100
AcDbLine
 10
7.218917
 20
0.197
 30
0.0
 11
7.220167
 21
0.197833
 31
0.0
  0
LINE
  5
4C0
100
AcDbEntity
  8
1
  6
CONTINUOUS
 62
     1
100
AcDbLine
 10
7.220167
 20
0.197833
 30
0.0
 11
7.218917
 21
0.195833
 31
0.0
  0
LINE
  5
4C1
100
AcDbEntity
  8
1
  6
CONTINUOUS
 62
     1
100
AcDbLine
 10
7.218917
 20
0.195833
 30
0.0
 11
7.218583
 21
0.197167
 31
0.0
  0
LINE
  5
4C2
100
AcDbEntity
  8
1
  6
CONTINUOUS
 62
     1
100
AcDbLine
 10
7.218583
 20
0.197167
 30
0.0
 11
7.218083
 21
0.197917
 31
0.0
  0
LINE
  5
4C3
100
AcDbEntity
  8
1
  6
CONTINUOUS
 62
     1
100
AcDbLine
 10
7.218333
 20
0.196167
 30
0.0
 11
7.219833
 21
0.196083
 31
0.0
  0
LINE
  5
4C4
100
AcDbEntity
  8
1
  6
CONTINUOUS
 62
     1
100
AcDbLine
 10
7.218333
 20
0.19625
 30
0.0
 11
7.219833
 21
0.196167
 31
0.0
  0
LINE
  5
4C5
100
AcDbEntity
  8
1
  6
CONTINUOUS
 62
     1
100
AcDbLine
 10
7.218333
 20
0.196417
 30
0.0
 11
7.219833
 21
0.196333
 31
0.0
  0
LINE
  5
4C6
100
AcDbEntity
  8
1
  6
CONTINUOUS
 62
     1
100
AcDbLine
 10
7.218333
 20
0.1965
 30
0.0
 11
7.219833
 21
0.196417
 31
0.0
  0
LINE
  5
4C7
100
AcDbEntity
  8
1
  6
CONTINUOUS
 62
     1
100
AcDbLine
 10
7.218333
 20
0.196667
 30
0.0
 11
7.219833
 21
0.196583
 31
0.0
  0
LINE
  5
4C8
100
AcDbEntity
  8
1
  6
CONTINUOUS
 62
     1
100
AcDbLine
 10
7.218333
 20
0.196833
 30
0.0
 11
7.219833
 21
0.19675
 31
0.0
  0
LINE
  5
4C9
100
AcDbEntity
  8
1
  6
CONTINUOUS
 62
     1
100
AcDbLine
 10
7.218333
 20
0.197
 30
0.0
 11
7.219833
 21
0.196917
 31
0.0
  0
LINE
  5
4CA
100
AcDbEntity
  8
1
  6
CONTINUOUS
 62
     1
100
AcDbLine
 10
7.218333
 20
0.197083
 30
0.0
 11
7.219833
 21
0.197
 31
0.0
  0
LINE
  5
4CB
100
AcDbEntity
  8
1
  6
CONTINUOUS
 62
     1
100
AcDbLine
 10
7.218333
 20
0.197167
 30
0.0
 11
7.219833
 21
0.197083
 31
0.0
  0
LINE
  5
4CC
100
AcDbEntity
  8
1
  6
CONTINUOUS
 62
     1
100
AcDbLine
 10
7.218417
 20
0.197333
 30
0.0
 11
7.219917
 21
0.197167
 31
0.0
  0
LINE
  5
4CD
100
AcDbEntity
  8
1
  6
CONTINUOUS
 62
     1
100
AcDbLine
 10
7.218417
 20
0.197583
 30
0.0
 11
7.219917
 21
0.1975
 31
0.0
  0
LINE
  5
4CE
100
AcDbEntity
  8
1
  6
CONTINUOUS
 62
     1
100
AcDbLine
 10
7.218417
 20
0.197583
 30
0.0
 11
7.219917
 21
0.1975
 31
0.0
  0
LINE
  5
4CF
100
AcDbEntity
  8
1
  6
CONTINUOUS
 62
     1
100
AcDbLine
 10
7.218417
 20
0.197667
 30
0.0
 11
7.219917
 21
0.197583
 31
0.0
  0
LINE
  5
4D0
100
AcDbEntity
  8
1
  6
CONTINUOUS
 62
     1
100
AcDbLine
 10
7.218417
 20
0.19775
 30
0.0
 11
7.219917
 21
0.197667
 31
0.0
  0
LINE
  5
4D1
100
AcDbEntity
  8
1
  6
CONTINUOUS
 62
     1
100
AcDbLine
 10
7.218417
 20
0.197917
 30
0.0
 11
7.219917
 21
0.197833
 31
0.0
  0
LINE
  5
4D2
100
AcDbEntity
  8
1
  6
CONTINUOUS
 62
     1
100
AcDbLine
 10
7.218417
 20
0.197833
 30
0.0
 11
7.219917
 21
0.19775
 31
0.0
  0
LINE
  5
4D3
100
AcDbEntity
  8
1
  6
CONTINUOUS
 62
     1
100
AcDbLine
 10
7.218417
 20
0.198083
 30
0.0
 11
7.219917
 21
0.198
 31
0.0
  0
LINE
  5
4D4
100
AcDbEntity
  8
1
  6
CONTINUOUS
 62
     1
100
AcDbLine
 10
7.218417
 20
0.19825
 30
0.0
 11
7.219917
 21
0.198167
 31
0.0
  0
LINE
  5
4D5
100
AcDbEntity
  8
1
  6
CONTINUOUS
 62
     1
100
AcDbLine
 10
7.21975
 20
0.195917
 30
0.0
 11
7.220083
 21
0.197917
 31
0.0
  0
LINE
  5
4D6
100
AcDbEntity
  8
1
  6
CONTINUOUS
 62
     1
100
AcDbLine
 10
7.219667
 20
0.196
 30
0.0
 11
7.22
 21
0.197917
 31
0.0
  0
LINE
  5
4D7
100
AcDbEntity
  8
1
  6
CONTINUOUS
 62
     1
100
AcDbLine
 10
7.219583
 20
0.196
 30
0.0
 11
7.219917
 21
0.197917
 31
0.0
  0
LINE
  5
4D8
100
AcDbEntity
  8
1
  6
CONTINUOUS
 62
     1
100
AcDbLine
 10
7.2195
 20
0.196
 30
0.0
 11
7.219833
 21
0.198
 31
0.0
  0
LINE
  5
4D9
100
AcDbEntity
  8
1
  6
CONTINUOUS
 62
     1
100
AcDbLine
 10
7.21925
 20
0.196
 30
0.0
 11
7.219667
 21
0.198
 31
0.0
  0
LINE
  5
4DA
100
AcDbEntity
  8
1
  6
CONTINUOUS
 62
     1
100
AcDbLine
 10
7.219083
 20
0.196083
 30
0.0
 11
7.2195
 21
0.198
 31
0.0
  0
LINE
  5
4DB
100
AcDbEntity
  8
1
  6
CONTINUOUS
 62
     1
100
AcDbLine
 10
7.219
 20
0.196083
 30
0.0
 11
7.219417
 21
0.198
 31
0.0
  0
LINE
  5
4DC
100
AcDbEntity
  8
1
  6
CONTINUOUS
 62
     1
100
AcDbLine
 10
7.218917
 20
0.196083
 30
0.0
 11
7.219333
 21
0.198083
 31
0.0
  0
LINE
  5
4DD
100
AcDbEntity
  8
1
  6
CONTINUOUS
 62
     1
100
AcDbLine
 10
7.218833
 20
0.196083
 30
0.0
 11
7.219167
 21
0.198083
 31
0.0
  0
LINE
  5
4DE
100
AcDbEntity
  8
1
  6
CONTINUOUS
 62
     1
100
AcDbLine
 10
7.21875
 20
0.196167
 30
0.0
 11
7.219083
 21
0.198083
 31
0.0
  0
LINE
  5
4DF
100
AcDbEntity
  8
1
  6
CONTINUOUS
 62
     1
100
AcDbLine
 10
7.218583
 20
0.196167
 30
0.0
 11
7.219
 21
0.198167
 31
0.0
  0
LINE
  5
4E0
100
AcDbEntity
  8
1
  6
CONTINUOUS
 62
     1
100
AcDbLine
 10
7.2185
 20
0.196167
 30
0.0
 11
7.218917
 21
0.198167
 31
0.0
  0
LINE
  5
4E1
100
AcDbEntity
  8
1
  6
CONTINUOUS
 62
     1
100
AcDbLine
 10
7.218417
 20
0.196167
 30
0.0
 11
7.21875
 21
0.198167
 31
0.0
  0
LINE
  5
4E2
100
AcDbEntity
  8
1
  6
CONTINUOUS
 62
     1
100
AcDbLine
 10
7.218333
 20
0.196167
 30
0.0
 11
7.218667
 21
0.198167
 31
0.0
  0
LINE
  5
4E3
100
AcDbEntity
  8
1
  6
CONTINUOUS
 62
     1
100
AcDbLine
 10
7.218167
 20
0.19625
 30
0.0
 11
7.2185
 21
0.198167
 31
0.0
  0
LINE
  5
4E4
100
AcDbEntity
  8
1
  6
CONTINUOUS
 62
     1
100
AcDbLine
 10
7.218417
 20
0.1975
 30
0.0
 11
7.219917
 21
0.197333
 31
0.0
  0
LINE
  5
4E5
100
AcDbEntity
  8
1
  6
CONTINUOUS
 62
     1
100
AcDbLine
 10
7.218333
 20
0.19675
 30
0.0
 11
7.219833
 21
0.196667
 31
0.0
  0
LINE
  5
4E6
100
AcDbEntity
  8
1
  6
CONTINUOUS
 62
     1
100
AcDbLine
 10
7.218333
 20
0.196333
 30
0.0
 11
7.219833
 21
0.19625
 31
0.0
  0
LINE
  5
4E7
100
AcDbEntity
  8
1
  6
CONTINUOUS
 62
     1
100
AcDbLine
 10
7.218333
 20
0.196917
 30
0.0
 11
7.219833
 21
0.196833
 31
0.0
  0
LINE
  5
4E8
100
AcDbEntity
  8
1
  6
CONTINUOUS
 62
     1
100
AcDbLine
 10
7.218417
 20
0.198
 30
0.0
 11
7.219917
 21
0.197917
 31
0.0
  0
LINE
  5
4E9
100
AcDbEntity
  8
1
  6
CONTINUOUS
 62
     2
100
AcDbLine
 10
6.752
 20
0.35125
 30
0.0
 11
6.75225
 21
0.35175
 31
0.0
  0
LINE
  5
4EA
100
AcDbEntity
  8
1
  6
CONTINUOUS
 62
   253
100
AcDbLine
 10
7.30225
 20
-0.389583
 30
0.0
 11
7.30225
 21
-0.389417
 31
0.0
  0
TEXT
  5
4EB
100
AcDbEntity
  8
1
  6
CONTINUOUS
 62
   110
100
AcDbText
 10
7.33425
 20
-0.3515
 30
0.0
 40
0.008333
  1
3" CL
  7
TXT
210
0.0
220
0.0
230
1.0
100
AcDbText
  0
LINE
  5
4EC
100
AcDbEntity
  8
1
  6
CONTINUOUS
 62
   131
100
AcDbLine
 10
7.312917
 20
-0.360083
 30
0.0
 11
7.351667
 21
-0.360083
 31
0.0
  0
POINT
  5
4ED
100
AcDbEntity
  8
1
  6
CONTINUOUS
 62
   253
100
AcDbPoint
 10
7.209667
 20
-0.427583
 30
0.0
  0
TEXT
  5
4EE
100
AcDbEntity
  8
1
  6
CONTINUOUS
 62
   110
100
AcDbText
 10
7.245167
 20
-0.436333
 30
0.0
 40
0.008333
  1
P509
  7
TXT
210
0.0
220
0.0
230
1.0
100
AcDbText
  0
LINE
  5
4EF
100
AcDbEntity
  8
1
  6
CONTINUOUS
 62
   151
100
AcDbLine
 10
7.207333
 20
-0.411583
 30
0.0
 11
7.293
 21
-0.411583
 31
0.0
  0
INSERT
  5
4F0
100
AcDbEntity
  8
1
  6
CONTINUOUS
 62
     1
100
AcDbBlockReference
  2
BARBND
 10
7.294417
 20
-0.411417
 30
0.0
 50
180.0
210
0.0
220
0.0
230
1.0
  0
INSERT
  5
4F1
100
AcDbEntity
  8
1
  6
CONTINUOUS
 62
     1
100
AcDbBlockReference
  2
BARBND
 10
7.209083
 20
-0.406333
 30
0.0
 50
90.0
210
0.0
220
0.0
230
1.0
  0
INSERT
  5
4F2
100
AcDbEntity
  8
1
  6
CONTINUOUS
 62
     1
100
AcDbBlockReference
  2
BARBND
 10
7.290583
 20
-0.406167
 30
0.0
 50
90.0
210
0.0
220
0.0
230
1.0
  0
LINE
  5
4F3
100
AcDbEntity
  8
1
  6
CONTINUOUS
 62
     1
100
AcDbLine
 10
7.290417
 20
-0.40475
 30
0.0
 11
7.290417
 21
-0.454083
 31
0.0
  0
LINE
  5
4F4
100
AcDbEntity
  8
1
  6
CONTINUOUS
 62
     1
100
AcDbLine
 10
7.209
 20
-0.404917
 30
0.0
 11
7.209
 21
-0.45425
 31
0.0
  0
LINE
  5
4F5
100
AcDbEntity
  8
1
  6
CONTINUOUS
 62
   230
100
AcDbLine
 10
7.16
 20
0.06525
 30
0.0
 11
7.227917
 21
0.06525
 31
0.0
  0
LINE
  5
4F6
100
AcDbEntity
  8
1
  6
CONTINUOUS
 62
   230
100
AcDbLine
 10
7.16075
 20
0.1945
 30
0.0
 11
7.227917
 21
0.1945
 31
0.0
  0
INSERT
  5
4F7
100
AcDbEntity
  8
1
  6
CONTINUOUS
 62
   200
100
AcDbBlockReference
  2
REBAR
 10
7.279167
 20
0.073
 30
0.0
 41
0.800003
 42
-0.800003
 50
180.0
210
0.0
220
0.0
230
1.0
  0
INSERT
  5
4F8
100
AcDbEntity
  8
1
  6
CONTINUOUS
 62
   200
100
AcDbBlockReference
  2
REBAR
 10
7.279167
 20
0.136917
 30
0.0
 41
0.800003
 42
-0.800003
 50
180.0
210
0.0
220
0.0
230
1.0
  0
INSERT
  5
4F9
100
AcDbEntity
  8
1
  6
CONTINUOUS
 62
   200
100
AcDbBlockReference
  2
REBAR
 10
7.278917
 20
0.186417
 30
0.0
 41
0.800003
 42
-0.800003
 50
180.0
210
0.0
220
0.0
230
1.0
  0
INSERT
  5
4FA
100
AcDbEntity
  8
1
  6
CONTINUOUS
 62
   200
100
AcDbBlockReference
  2
REBAR
 10
7.2245
 20
0.068833
 30
0.0
 41
0.800003
 42
-0.800003
 50
180.0
210
0.0
220
0.0
230
1.0
  0
INSERT
  5
4FB
100
AcDbEntity
  8
1
  6
CONTINUOUS
 62
   200
100
AcDbBlockReference
  2
REBAR
 10
7.224167
 20
0.191083
 30
0.0
 41
0.800003
 42
-0.800003
 50
180.0
210
0.0
220
0.0
230
1.0
  0
LINE
  5
4FC
100
AcDbEntity
  8
1
  6
CONTINUOUS
 62
     1
100
AcDbLine
 10
7.274167
 20
0.194417
 30
0.0
 11
7.274167
 21
0.061583
 31
0.0
  0
INSERT
  5
4FD
100
AcDbEntity
  8
1
  6
CONTINUOUS
 62
     1
100
AcDbBlockReference
  2
BARBND
 10
7.274167
 20
0.196917
 30
0.0
 42
-1.0
 50
90.0
210
0.0
220
0.0
230
1.0
  0
INSERT
  5
4FE
100
AcDbEntity
  8
1
  6
CONTINUOUS
 62
     1
100
AcDbBlockReference
  2
BARBND
 10
7.274333
 20
0.06425
 30
0.0
 42
-1.0
 50
270.0
210
0.0
220
0.0
230
1.0
  0
POLYLINE
  5
4FF
100
AcDbEntity
  8
1
  6
CONTINUOUS
 62
   230
100
AcDb2dPolyline
 66
     1
 10
0.0
 20
0.0
 30
0.0
  0
VERTEX
  5
500
100
AcDbEntity
  8
1
  6
CONTINUOUS
 62
   230
100
AcDbVertex
100
AcDb2dVertex
 10
7.282917
 20
0.19025
 30
0.0
  0
VERTEX
  5
501
100
AcDbEntity
  8
1
  6
CONTINUOUS
 62
   230
100
AcDbVertex
100
AcDb2dVertex
 10
7.235417
 20
0.19025
 30
0.0
  0
VERTEX
  5
502
100
AcDbEntity
  8
1
  6
CONTINUOUS
 62
   230
100
AcDbVertex
100
AcDb2dVertex
 10
7.228167
 20
0.194417
 30
0.0
  0
VERTEX
  5
503
100
AcDbEntity
  8
1
  6
CONTINUOUS
 62
   230
100
AcDbVertex
100
AcDb2dVertex
 10
7.22125
 20
0.194417
 30
0.0
  0
SEQEND
  5
504
100
AcDbEntity
  8
1
  6
CONTINUOUS
 62
   230
  0
POLYLINE
  5
505
100
AcDbEntity
  8
1
  6
CONTINUOUS
 62
   230
100
AcDb2dPolyline
 66
     1
 10
0.0
 20
0.0
 30
0.0
  0
VERTEX
  5
506
100
AcDbEntity
  8
1
  6
CONTINUOUS
 62
   230
100
AcDbVertex
100
AcDb2dVertex
 10
7.28275
 20
0.069667
 30
0.0
  0
VERTEX
  5
507
100
AcDbEntity
  8
1
  6
CONTINUOUS
 62
   230
100
AcDbVertex
100
AcDb2dVertex
 10
7.236833
 20
0.069667
 30
0.0
  0
VERTEX
  5
508
100
AcDbEntity
  8
1
  6
CONTINUOUS
 62
   230
100
AcDbVertex
100
AcDb2dVertex
 10
7.235
 20
0.069667
 30
0.0
  0
VERTEX
  5
509
100
AcDbEntity
  8
1
  6
CONTINUOUS
 62
   230
100
AcDbVertex
100
AcDb2dVertex
 10
7.22775
 20
0.0655
 30
0.0
  0
VERTEX
  5
50A
100
AcDbEntity
  8
1
  6
CONTINUOUS
 62
   230
100
AcDbVertex
100
AcDb2dVertex
 10
7.221667
 20
0.0655
 30
0.0
  0
SEQEND
  5
50B
100
AcDbEntity
  8
1
  6
CONTINUOUS
 62
   230
  0
LINE
  5
50C
100
AcDbEntity
  8
1
  6
CONTINUOUS
 62
   151
100
AcDbLine
 10
7.235
 20
0.195333
 30
0.0
 11
7.283333
 21
0.195333
 31
0.0
  0
LINE
  5
50D
100
AcDbEntity
  8
1
  6
CONTINUOUS
 62
   151
100
AcDbLine
 10
7.283583
 20
0.06525
 30
0.0
 11
7.23475
 21
0.06525
 31
0.0
  0
TEXT
  5
50E
100
AcDbEntity
  8
1
  6
CONTINUOUS
 62
   110
100
AcDbText
 10
7.22175
 20
0.17075
 30
0.0
 40
0.008333
  1
P503
  7
TXT
210
0.0
220
0.0
230
1.0
100
AcDbText
  0
TEXT
  5
50F
100
AcDbEntity
  8
1
  6
CONTINUOUS
 62
   110
100
AcDbText
 10
7.093583
 20
0.113833
 30
0.0
 40
0.008333
  1
P509
  7
TXT
210
0.0
220
0.0
230
1.0
100
AcDbText
  0
TEXT
  5
510
100
AcDbEntity
  8
1
  6
CONTINUOUS
 62
   110
100
AcDbText
 10
7.24075
 20
0.099
 30
0.0
 40
0.008333
  1
P501
  7
TXT
210
0.0
220
0.0
230
1.0
100
AcDbText
  0
INSERT
  5
511
100
AcDbEntity
  8
1
  6
CONTINUOUS
 62
     2
100
AcDbBlockReference
  2
ARROW1
 10
7.22375
 20
0.0725
 30
0.0
 41
0.21094
 42
0.21094
 50
270.0
210
0.0
220
0.0
230
1.0
  0
INSERT
  5
512
100
AcDbEntity
  8
1
  6
CONTINUOUS
 62
     2
100
AcDbBlockReference
  2
ARROW1
 10
7.28175
 20
0.174333
 30
0.0
 41
0.21094
 42
0.21094
210
0.0
220
0.0
230
1.0
  0
INSERT
  5
513
100
AcDbEntity
  8
1
  6
CONTINUOUS
 62
     2
100
AcDbBlockReference
  2
ARROW1
 10
7.1585
 20
0.12025
 30
0.0
 41
0.21094
 42
0.21094
210
0.0
220
0.0
230
1.0
  0
INSERT
  5
514
100
AcDbEntity
  8
1
  6
CONTINUOUS
 62
     2
100
AcDbBlockReference
  2
ARROW1
 10
7.160833
 20
0.12025
 30
0.0
 41
0.21094
 42
0.21094
210
0.0
220
0.0
230
1.0
  0
ARC
  5
515
100
AcDbEntity
  8
1
  6
CONTINUOUS
 62
   110
100
AcDbCircle
 10
7.2565
 20
0.097127
 30
0.0
 40
0.079041
210
0.0
220
0.0
230
1.0
100
AcDbArc
 50
78.506111
 51
92.658867
  0
ARC
  5
516
100
AcDbEntity
  8
1
  6
CONTINUOUS
 62
   110
100
AcDbCircle
 10
7.239312
 20
0.086444
 30
0.0
 40
0.016419
210
0.0
220
0.0
230
1.0
100
AcDbArc
 50
93.416292
 51
193.299844
  0
ARC
  5
517
100
AcDbEntity
  8
1
  6
CONTINUOUS
 62
   110
100
AcDbCircle
 10
7.132007
 20
0.239864
 30
0.0
 40
0.120431
210
0.0
220
0.0
230
1.0
100
AcDbArc
 50
268.093381
 51
277.631428
  0
LINE
  5
518
100
AcDbEntity
  8
1
  6
CONTINUOUS
 62
   151
100
AcDbLine
 10
7.283333
 20
0.195333
 30
0.0
 11
7.283333
 21
0.064917
 31
0.0
  0
LINE
  5
519
100
AcDbEntity
  8
1
  6
CONTINUOUS
 62
   151
100
AcDbLine
 10
8.272417
 20
-0.915667
 30
0.0
 11
8.689083
 21
-0.915667
 31
0.0
  0
LINE
  5
51A
100
AcDbEntity
  8
1
  6
CONTINUOUS
 62
   151
100
AcDbLine
 10
8.689083
 20
-0.915667
 30
0.0
 11
8.689083
 21
-1.121083
 31
0.0
  0
LINE
  5
51B
100
AcDbEntity
  8
1
  6
CONTINUOUS
 62
   151
100
AcDbLine
 10
8.689083
 20
-1.121083
 30
0.0
 11
8.272417
 21
-1.121083
 31
0.0
  0
LINE
  5
51C
100
AcDbEntity
  8
1
  6
CONTINUOUS
 62
   151
100
AcDbLine
 10
8.272417
 20
-1.121083
 30
0.0
 11
8.272417
 21
-0.915667
 31
0.0
  0
LINE
  5
51D
100
AcDbEntity
  8
1
  6
CONTINUOUS
 62
   151
100
AcDbLine
 10
8.272417
 20
-0.996083
 30
0.0
 11
8.689083
 21
-0.996083
 31
0.0
  0
LINE
  5
51E
100
AcDbEntity
  8
1
  6
CONTINUOUS
 62
   151
100
AcDbLine
 10
8.272417
 20
-1.03775
 30
0.0
 11
8.689083
 21
-1.03775
 31
0.0
  0
LINE
  5
51F
100
AcDbEntity
  8
1
  6
CONTINUOUS
 62
   151
100
AcDbLine
 10
8.272417
 20
-1.079417
 30
0.0
 11
8.689083
 21
-1.079417
 31
0.0
  0
TEXT
  5
520
100
AcDbEntity
  8
1
  6
CONTINUOUS
 62
   211
100
AcDbText
 10
8.336
 20
-1.0245
 30
0.0
 40
0.014584
  1
OPTION
  7
TXT
 11
8.336
 21
-1.017167
 31
0.0
210
0.0
220
0.0
230
1.0
100
AcDbText
 73
     2
  0
TEXT
  5
521
100
AcDbEntity
  8
1
  6
CONTINUOUS
 62
   211
100
AcDbText
 10
8.507417
 20
-1.02375
 30
0.0
 40
0.014584
  1
CHECK OPTION
  7
TXT
 11
8.507417
 21
-1.016417
 31
0.0
210
0.0
220
0.0
230
1.0
100
AcDbText
 73
     2
  0
LINE
  5
522
100
AcDbEntity
  8
1
  6
CONTINUOUS
 62
   151
100
AcDbLine
 10
8.48675
 20
-1.121417
 30
0.0
 11
8.48675
 21
-0.996417
 31
0.0
  0
TEXT
  5
523
100
AcDbEntity
  8
1
  6
CONTINUOUS
 62
   230
100
AcDbText
 10
8.3635
 20
-1.061583
 30
0.0
 40
0.008333
  1
YES
  7
TXT
 72
     4
 11
8.374333
 21
-1.057417
 31
0.0
210
0.0
220
0.0
230
1.0
100
AcDbText
  0
TEXT
  5
524
100
AcDbEntity
  8
1
  6
CONTINUOUS
 62
   230
100
AcDbText
 10
8.367083
 20
-1.104417
 30
0.0
 40
0.008333
  1
NO
  7
TXT
 72
     4
 11
8.373833
 21
-1.10025
 31
0.0
210
0.0
220
0.0
230
1.0
100
AcDbText
  0
TEXT
  5
525
100
AcDbEntity
  8
1
  6
CONTINUOUS
 62
    91
100
AcDbText
 10
8.313
 20
-0.942833
 30
0.0
 40
0.016666
  1
OPTIONAL EPOXY COATING
  7
TXT
 72
     4
 11
8.4835
 21
-0.9345
 31
0.0
210
0.0
220
0.0
230
1.0
100
AcDbText
  0
TEXT
  5
526
100
AcDbEntity
  8
1
  6
CONTINUOUS
 62
    91
100
AcDbText
 10
8.370833
 20
-0.982167
 30
0.0
 40
0.016666
  1
FOR STEM STEEL
  7
TXT
 72
     4
 11
8.484417
 21
-0.973833
 31
0.0
210
0.0
220
0.0
230
1.0
100
AcDbText
  0
POLYLINE
  5
527
100
AcDbEntity
  8
1
  6
CONTINUOUS
 62
   200
100
AcDb2dPolyline
 66
     1
 10
0.0
 20
0.0
 30
0.0
  0
VERTEX
  5
528
100
AcDbEntity
  8
1
  6
CONTINUOUS
 62
   200
100
AcDbVertex
100
AcDb2dVertex
 10
7.202667
 20
-0.407
 30
0.0
  0
VERTEX
  5
529
100
AcDbEntity
  8
1
  6
CONTINUOUS
 62
   200
100
AcDbVertex
100
AcDb2dVertex
 10
7.202667
 20
-0.450333
 30
0.0
  0
VERTEX
  5
52A
100
AcDbEntity
  8
1
  6
CONTINUOUS
 62
   200
100
AcDbVertex
100
AcDb2dVertex
 10
7.208583
 20
-0.45625
 30
0.0
  0
VERTEX
  5
52B
100
AcDbEntity
  8
1
  6
CONTINUOUS
 62
   200
100
AcDbVertex
100
AcDb2dVertex
 10
7.208583
 20
-0.664583
 30
0.0
  0
VERTEX
  5
52C
100
AcDbEntity
  8
1
  6
CONTINUOUS
 62
   200
100
AcDbVertex
100
AcDb2dVertex
 10
7.202667
 20
-0.6705
 30
0.0
  0
VERTEX
  5
52D
100
AcDbEntity
  8
1
  6
CONTINUOUS
 62
   200
100
AcDbVertex
100
AcDb2dVertex
 10
7.202667
 20
-0.71675
 30
0.0
  0
SEQEND
  5
52E
100
AcDbEntity
  8
1
  6
CONTINUOUS
 62
   200
  0
POLYLINE
  5
52F
100
AcDbEntity
  8
1
  6
CONTINUOUS
 62
   200
100
AcDb2dPolyline
 66
     1
 10
0.0
 20
0.0
 30
0.0
  0
VERTEX
  5
530
100
AcDbEntity
  8
1
  6
CONTINUOUS
 62
   200
100
AcDbVertex
100
AcDb2dVertex
 10
7.2845
 20
-0.406833
 30
0.0
  0
VERTEX
  5
531
100
AcDbEntity
  8
1
  6
CONTINUOUS
 62
   200
100
AcDbVertex
100
AcDb2dVertex
 10
7.2845
 20
-0.450167
 30
0.0
  0
VERTEX
  5
532
100
AcDbEntity
  8
1
  6
CONTINUOUS
 62
   200
100
AcDbVertex
100
AcDb2dVertex
 10
7.290417
 20
-0.456083
 30
0.0
  0
VERTEX
  5
533
100
AcDbEntity
  8
1
  6
CONTINUOUS
 62
   200
100
AcDbVertex
100
AcDb2dVertex
 10
7.290417
 20
-0.664417
 30
0.0
  0
VERTEX
  5
534
100
AcDbEntity
  8
1
  6
CONTINUOUS
 62
   200
100
AcDbVertex
100
AcDb2dVertex
 10
7.2845
 20
-0.670333
 30
0.0
  0
VERTEX
  5
535
100
AcDbEntity
  8
1
  6
CONTINUOUS
 62
   200
100
AcDbVertex
100
AcDb2dVertex
 10
7.2845
 20
-0.716583
 30
0.0
  0
SEQEND
  5
536
100
AcDbEntity
  8
1
  6
CONTINUOUS
 62
   200
  0
POLYLINE
  5
537
100
AcDbEntity
  8
1
  6
CONTINUOUS
 62
   200
100
AcDb2dPolyline
 66
     1
 10
0.0
 20
0.0
 30
0.0
  0
VERTEX
  5
538
100
AcDbEntity
  8
1
  6
CONTINUOUS
 62
   200
100
AcDbVertex
100
AcDb2dVertex
 10
7.138417
 20
-0.407
 30
0.0
  0
VERTEX
  5
539
100
AcDbEntity
  8
1
  6
CONTINUOUS
 62
   200
100
AcDbVertex
100
AcDb2dVertex
 10
7.138417
 20
-0.450333
 30
0.0
  0
VERTEX
  5
53A
100
AcDbEntity
  8
1
  6
CONTINUOUS
 62
   200
100
AcDbVertex
100
AcDb2dVertex
 10
7.144333
 20
-0.45625
 30
0.0
  0
VERTEX
  5
53B
100
AcDbEntity
  8
1
  6
CONTINUOUS
 62
   200
100
AcDbVertex
100
AcDb2dVertex
 10
7.144333
 20
-0.664583
 30
0.0
  0
VERTEX
  5
53C
100
AcDbEntity
  8
1
  6
CONTINUOUS
 62
   200
100
AcDbVertex
100
AcDb2dVertex
 10
7.138417
 20
-0.6705
 30
0.0
  0
VERTEX
  5
53D
100
AcDbEntity
  8
1
  6
CONTINUOUS
 62
   200
100
AcDbVertex
100
AcDb2dVertex
 10
7.138417
 20
-0.71675
 30
0.0
  0
SEQEND
  5
53E
100
AcDbEntity
  8
1
  6
CONTINUOUS
 62
   200
  0
LINE
  5
53F
100
AcDbEntity
  8
1
  6
CONTINUOUS
 62
     1
100
AcDbLine
 10
7.144833
 20
-0.403333
 30
0.0
 11
7.144833
 21
-0.452667
 31
0.0
  0
INSERT
  5
540
100
AcDbEntity
  8
1
  6
CONTINUOUS
 62
     1
100
AcDbBlockReference
  2
BARBND
 10
7.14525
 20
-0.405167
 30
0.0
 50
90.0
210
0.0
220
0.0
230
1.0
  0
LINE
  5
541
100
AcDbEntity
  8
1
  6
CONTINUOUS
 62
   200
100
AcDbLine
 10
7.14525
 20
-0.667917
 30
0.0
 11
7.14525
 21
-0.780417
 31
0.0
  0
LINE
  5
542
100
AcDbEntity
  8
1
  6
CONTINUOUS
 62
   200
100
AcDbLine
 10
7.209167
 20
-0.667917
 30
0.0
 11
7.209167
 21
-0.780333
 31
0.0
  0
LINE
  5
543
100
AcDbEntity
  8
1
  6
CONTINUOUS
 62
   200
100
AcDbLine
 10
7.291083
 20
-0.667667
 30
0.0
 11
7.291083
 21
-0.78
 31
0.0
  0
INSERT
  5
544
100
AcDbEntity
  8
1
  6
CONTINUOUS
 62
     2
100
AcDbBlockReference
  2
ARROW1
 10
7.21
 20
-0.431417
 30
0.0
 41
0.21094
 42
0.21094
 50
180.0
210
0.0
220
0.0
230
1.0
  0
ARC
  5
545
100
AcDbEntity
  8
1
  6
CONTINUOUS
 62
   131
100
AcDbCircle
 10
7.228156
 20
-0.569921
 30
0.0
 40
0.139025
210
0.0
220
0.0
230
1.0
100
AcDbArc
 50
85.04405
 51
93.569828
  0
LINE
  5
546
100
AcDbEntity
  8
1
  6
CONTINUOUS
 62
   200
100
AcDbLine
 10
6.738417
 20
-0.6685
 30
0.0
 11
6.738417
 21
-0.780333
 31
0.0
  0
LINE
  5
547
100
AcDbEntity
  8
1
  6
CONTINUOUS
 62
   230
100
AcDbLine
 10
6.738333
 20
-0.490667
 30
0.0
 11
6.962
 21
-0.490667
 31
0.0
  0
INSERT
  5
548
100
AcDbEntity
  8
1
  6
CONTINUOUS
 62
   200
100
AcDbBlockReference
  2
REBAR
 10
7.1685
 20
0.188667
 30
0.0
 41
0.800003
 42
-0.800003
 50
180.0
210
0.0
220
0.0
230
1.0
  0
INSERT
  5
549
100
AcDbEntity
  8
1
  6
CONTINUOUS
 62
   200
100
AcDbBlockReference
  2
REBAR
 10
7.168417
 20
0.071
 30
0.0
 41
0.800003
 42
-0.800003
 50
180.0
210
0.0
220
0.0
230
1.0
  0
TEXT
  5
54A
100
AcDbEntity
  8
1
  6
CONTINUOUS
 62
   253
100
AcDbText
 10
8.81725
 20
0.061333
 30
0.0
 40
0.008333
  1
H
  7
TXT
 72
     1
 11
8.819917
 21
0.061333
 31
0.0
210
0.0
220
0.0
230
1.0
100
AcDbText
  0
TEXT
  5
54B
100
AcDbEntity
  8
1
  6
CONTINUOUS
 62
   253
100
AcDbText
 10
8.902917
 20
0.078417
 30
0.0
 40
0.008333
  1
HEIGHT OF CONST.
  7
TXT
 72
     4
 11
8.963417
 21
0.082583
 31
0.0
210
0.0
220
0.0
230
1.0
100
AcDbText
  0
TEXT
  5
54C
100
AcDbEntity
  8
1
  6
CONTINUOUS
 62
   253
100
AcDbText
 10
8.936833
 20
0.062667
 30
0.0
 40
0.008333
  1
JOINT
  7
TXT
 72
     4
 11
8.954583
 21
0.066833
 31
0.0
210
0.0
220
0.0
230
1.0
100
AcDbText
  0
LINE
  5
54D
100
AcDbEntity
  8
1
  6
CONTINUOUS
 62
   131
100
AcDbLine
 10
7.30225
 20
-0.3835
 30
0.0
 11
7.30225
 21
-0.22175
 31
0.0
  0
LINE
  5
54E
100
AcDbEntity
  8
1
  6
CONTINUOUS
 62
   131
100
AcDbLine
 10
7.390583
 20
-0.80625
 30
0.0
 11
7.465583
 21
-0.80625
 31
0.0
  0
LINE
  5
54F
100
AcDbEntity
  8
1
  6
CONTINUOUS
 62
   131
100
AcDbLine
 10
7.290917
 20
-1.01575
 30
0.0
 11
6.739167
 21
-1.01575
 31
0.0
  0
POLYLINE
  5
550
100
AcDbEntity
  8
1
  6
CONTINUOUS
 62
   253
100
AcDb2dPolyline
 66
     1
 10
0.0
 20
0.0
 30
0.0
  0
VERTEX
  5
551
100
AcDbEntity
  8
1
  6
CONTINUOUS
 62
   253
100
AcDbVertex
100
AcDb2dVertex
 10
6.999333
 20
-0.934083
 30
0.0
  0
VERTEX
  5
552
100
AcDbEntity
  8
1
  6
CONTINUOUS
 62
   253
100
AcDbVertex
100
AcDb2dVertex
 10
6.999417
 20
-0.934083
 30
0.0
  0
SEQEND
  5
553
100
AcDbEntity
  8
1
  6
CONTINUOUS
 62
   253
  0
LINE
  5
554
100
AcDbEntity
  8
1
  6
CONTINUOUS
 62
   253
100
AcDbLine
 10
7.01675
 20
-0.89875
 30
0.0
 11
7.01675
 21
-0.900667
 31
0.0
  0
POLYLINE
  5
555
100
AcDbEntity
  8
1
  6
CONTINUOUS
 62
   253
100
AcDb2dPolyline
 66
     1
 10
0.0
 20
0.0
 30
0.0
  0
VERTEX
  5
556
100
AcDbEntity
  8
1
  6
CONTINUOUS
 62
   253
100
AcDbVertex
100
AcDb2dVertex
 10
6.999333
 20
-0.934083
 30
0.0
  0
VERTEX
  5
557
100
AcDbEntity
  8
1
  6
CONTINUOUS
 62
   253
100
AcDbVertex
100
AcDb2dVertex
 10
6.999417
 20
-0.934083
 30
0.0
  0
SEQEND
  5
558
100
AcDbEntity
  8
1
  6
CONTINUOUS
 62
   253
  0
LINE
  5
559
100
AcDbEntity
  8
1
  6
CONTINUOUS
 62
   253
100
AcDbLine
 10
7.01675
 20
-0.89875
 30
0.0
 11
7.01675
 21
-0.900667
 31
0.0
  0
LINE
  5
55B
100
AcDbEntity
  8
5
  6
HIDDEN
 62
   151
100
AcDbLine
 10
7.317083
 20
-0.754083
 30
0.0
 11
7.329
 21
-0.801833
 31
0.0
  0
LINE
  5
55C
100
AcDbEntity
  8
5
  6
CONTINUOUS
 62
   151
100
AcDbLine
 10
7.329
 20
-0.801833
 30
0.0
 11
7.349833
 21
-0.885
 31
0.0
  0
LINE
  5
55D
100
AcDbEntity
  8
5
  6
HIDDEN
 62
   151
100
AcDbLine
 10
7.28175
 20
-0.762833
 30
0.0
 11
7.2915
 21
-0.801833
 31
0.0
  0
LINE
  5
55E
100
AcDbEntity
  8
5
  6
CONTINUOUS
 62
   151
100
AcDbLine
 10
7.2915
 20
-0.801833
 30
0.0
 11
7.314583
 21
-0.893833
 31
0.0
  0
LINE
  5
55F
100
AcDbEntity
  8
5
  6
HIDDEN
 62
   151
100
AcDbLine
 10
7.3155
 20
-0.754417
 30
0.0
 11
7.327417
 21
-0.801833
 31
0.0
  0
LINE
  5
560
100
AcDbEntity
  8
5
  6
CONTINUOUS
 62
   151
100
AcDbLine
 10
7.327417
 20
-0.801833
 30
0.0
 11
7.348333
 21
-0.885417
 31
0.0
  0
LINE
  5
561
100
AcDbEntity
  8
5
  6
HIDDEN
 62
   151
100
AcDbLine
 10
7.28325
 20
-0.762417
 30
0.0
 11
7.293083
 21
-0.801833
 31
0.0
  0
LINE
  5
562
100
AcDbEntity
  8
5
  6
CONTINUOUS
 62
   151
100
AcDbLine
 10
7.293083
 20
-0.801833
 30
0.0
 11
7.316083
 21
-0.893417
 31
0.0
  0
LINE
  5
563
100
AcDbEntity
  8
5
  6
HIDDEN
 62
   151
100
AcDbLine
 10
7.317083
 20
-0.754083
 30
0.0
 11
7.28175
 21
-0.762833
 31
0.0
  0
SPLINE
  5
564
100
AcDbEntity
  8
5
  6
CONTINUOUS
 62
   151
100
AcDbSpline
210
0.0
220
0.0
230
1.0
 70
     8
 71
     3
 72
    56
 73
    52
 74
     0
 42
0.0
 43
0.0
 12
-0.9860962194030929
 22
-0.1661753473862092
 32
0.0
 13
-0.83568467469987
 23
-0.5492095451389865
 33
0.0
 40
0.0
 40
0.0
 40
0.0
 40
0.0
 40
0.0395502705322122
 40
0.0395502705322122
 40
0.0395502705322122
 40
0.1361270647184305
 40
0.1361270647184305
 40
0.1361270647184305
 40
0.2313955496896699
 40
0.2313955496896699
 40
0.2313955496896699
 40
0.2849956694177769
 40
0.2849956694177769
 40
0.2849956694177769
 40
0.3511691574193828
 40
0.3511691574193828
 40
0.3511691574193828
 40
0.3664356199749195
 40
0.3664356199749195
 40
0.3664356199749195
 40
0.4147588111619581
 40
0.4147588111619581
 40
0.4147588111619581
 40
0.4529249675507997
 40
0.4529249675507997
 40
0.4529249675507997
 40
0.5439839114864624
 40
0.5439839114864624
 40
0.5439839114864624
 40
0.6109317785403818
 40
0.6109317785403818
 40
0.6109317785403818
 40
0.6956148762925947
 40
0.6956148762925947
 40
0.6956148762925947
 40
0.7666238124622975
 40
0.7666238124622975
 40
0.7666238124622975
 40
0.8539131516465173
 40
0.8539131516465173
 40
0.8539131516465173
 40
0.8838531479827538
 40
0.8838531479827538
 40
0.8838531479827538
 40
0.9367800840778868
 40
0.9367800840778868
 40
0.9367800840778868
 40
0.9604497294677878
 40
0.9604497294677878
 40
0.9604497294677878
 40
1.0
 40
1.0
 40
1.0
 40
1.0
 10
7.3498333333333328
 20
-0.885
 30
0.0
 10
7.3493236351307747
 20
-0.8850858935205366
 30
0.0
 10
7.3488244882704512
 20
-0.8852423028410265
 30
0.0
 10
7.3483333333333327
 20
-0.8854166666666666
 30
0.0
 10
7.3471339946527818
 20
-0.885842441233459
 30
0.0
 10
7.3461629932079031
 20
-0.8868163611986859
 30
0.0
 10
7.3449166666666663
 20
-0.8870833333333333
 30
0.0
 10
7.343687223896656
 20
-0.8873466888424046
 30
0.0
 10
7.3424016124498381
 20
-0.887202860111748
 30
0.0
 10
7.3411666666666662
 20
-0.8870833333333333
 30
0.0
 10
7.3404718593349898
 20
-0.887016084970607
 30
0.0
 10
7.3397778629788677
 20
-0.8868242538284995
 30
0.0
 10
7.339083333333333
 20
-0.8867499999999999
 30
0.0
 10
7.3382258828388451
 20
-0.8866583279131798
 30
0.0
 10
7.3373397680488051
 20
-0.8864426897647854
 30
0.0
 10
7.3365
 20
-0.8870833333333333
 30
0.0
 10
7.3363062624797397
 20
-0.8872311321171974
 30
0.0
 10
7.3362652801299131
 20
-0.8874083421076446
 30
0.0
 10
7.3361666666666663
 20
-0.8875833333333333
 30
0.0
 10
7.3358545238096875
 20
-0.8881372360088382
 30
0.0
 10
7.3355656774563309
 20
-0.8886986371629511
 30
0.0
 10
7.3352499999999994
 20
-0.88925
 30
0.0
 10
7.3350006746787448
 20
-0.8896854720735299
 30
0.0
 10
7.3347398923145963
 20
-0.8901012751373255
 30
0.0
 10
7.3344166666666668
 20
-0.8905
 30
0.0
 10
7.3336454968938041
 20
-0.8914513000089955
 30
0.0
 10
7.3326067957179824
 20
-0.8920289382778238
 30
0.0
 10
7.3315000000000001
 20
-0.8925833333333333
 30
0.0
 10
7.3306862676044675
 20
-0.8929909326845603
 30
0.0
 10
7.3298586247183763
 20
-0.8932422468286619
 30
0.0
 10
7.3289999999999997
 20
-0.8934166666666666
 30
0.0
 10
7.3279139160938449
 20
-0.8936372922495516
 30
0.0
 10
7.3267303912233812
 20
-0.8935728678942932
 30
0.0
 10
7.3256666666666668
 20
-0.8934166666666666
 30
0.0
 10
7.3247747065098601
 20
-0.8932856879554885
 30
0.0
 10
7.3240202043163007
 20
-0.8922681322861161
 30
0.0
 10
7.3231666666666664
 20
-0.8921666666666667
 30
0.0
 10
7.3221174362257635
 20
-0.8920419377614132
 30
0.0
 10
7.3208825637742363
 20
-0.8924594897318492
 30
0.0
 10
7.3198333333333334
 20
-0.893
 30
0.0
 10
7.3194734502611265
 20
-0.8931853934924856
 30
0.0
 10
7.319359883072206
 20
-0.8936970884591728
 30
0.0
 10
7.319
 20
-0.8938333333333333
 30
0.0
 10
7.3183638105980204
 20
-0.8940741825193852
 30
0.0
 10
7.3175517899555889
 20
-0.8939877694359012
 30
0.0
 10
7.3169166666666667
 20
-0.8938333333333333
 30
0.0
 10
7.3166326308970415
 20
-0.893764267408629
 30
0.0
 10
7.316368064200006
 20
-0.8934385470396682
 30
0.0
 10
7.3160833333333333
 20
-0.8934166666666666
 30
0.0
 10
7.3156075685882236
 20
-0.8933801061412635
 30
0.0
 10
7.3150526921507772
 20
-0.8935248720794183
 30
0.0
 10
7.3145833333333332
 20
-0.8938333333333333
 30
0.0
  0
LINE
  5
565
100
AcDbEntity
  8
5
  6
DASHDOT
 62
     2
100
AcDbLine
 10
7.289667
 20
-0.71925
 30
0.0
 11
7.31025
 21
-0.801833
 31
0.0
  0
LINE
  5
566
100
AcDbEntity
  8
5
  6
DASHDOT
 62
     2
100
AcDbLine
 10
7.31025
 20
-0.801833
 30
0.0
 11
7.339583
 21
-0.919167
 31
0.0
  0
LINE
  5
567
100
AcDbEntity
  8
5
  6
HIDDEN
 62
   151
100
AcDbLine
 10
6.710417
 20
-0.7545
 30
0.0
 11
6.6985
 21
-0.801833
 31
0.0
  0
LINE
  5
568
100
AcDbEntity
  8
5
  6
CONTINUOUS
 62
   151
100
AcDbLine
 10
6.6985
 20
-0.801833
 30
0.0
 11
6.677667
 21
-0.8855
 31
0.0
  0
LINE
  5
569
100
AcDbEntity
  8
5
  6
HIDDEN
 62
   151
100
AcDbLine
 10
6.745667
 20
-0.76325
 30
0.0
 11
6.736
 21
-0.801833
 31
0.0
  0
LINE
  5
56A
100
AcDbEntity
  8
5
  6
CONTINUOUS
 62
   151
100
AcDbLine
 10
6.736
 20
-0.801833
 30
0.0
 11
6.712917
 21
-0.894333
 31
0.0
  0
LINE
  5
56B
100
AcDbEntity
  8
5
  6
HIDDEN
 62
   151
100
AcDbLine
 10
6.711917
 20
-0.754917
 30
0.0
 11
6.700167
 21
-0.801833
 31
0.0
  0
LINE
  5
56C
100
AcDbEntity
  8
5
  6
CONTINUOUS
 62
   151
100
AcDbLine
 10
6.700167
 20
-0.801833
 30
0.0
 11
6.679167
 21
-0.885833
 31
0.0
  0
LINE
  5
56D
100
AcDbEntity
  8
5
  6
HIDDEN
 62
   151
100
AcDbLine
 10
6.744167
 20
-0.762917
 30
0.0
 11
6.734417
 21
-0.801833
 31
0.0
  0
LINE
  5
56E
100
AcDbEntity
  8
5
  6
CONTINUOUS
 62
   151
100
AcDbLine
 10
6.734417
 20
-0.801833
 30
0.0
 11
6.711417
 21
-0.893833
 31
0.0
  0
LINE
  5
56F
100
AcDbEntity
  8
5
  6
HIDDEN
 62
   151
100
AcDbLine
 10
6.710417
 20
-0.7545
 30
0.0
 11
6.745667
 21
-0.76325
 31
0.0
  0
SPLINE
  5
570
100
AcDbEntity
  8
5
  6
CONTINUOUS
 62
   151
100
AcDbSpline
210
0.0
220
0.0
230
1.0
 70
     8
 71
     3
 72
    56
 73
    52
 74
     0
 42
0.0
 43
0.0
 12
0.9913627736275995
 22
-0.1311482026769434
 32
0.0
 13
0.8173361007117997
 23
-0.5761611740418049
 33
0.0
 40
0.0
 40
0.0
 40
0.0
 40
0.0
 40
0.0389586900783343
 40
0.0389586900783343
 40
0.0389586900783343
 40
0.1362866403625485
 40
0.1362866403625485
 40
0.1362866403625485
 40
0.2313640632030156
 40
0.2313640632030156
 40
0.2313640632030156
 40
0.285230911465866
 40
0.285230911465866
 40
0.285230911465866
 40
0.3494901764804564
 40
0.3494901764804564
 40
0.3494901764804564
 40
0.3644301521311753
 40
0.3644301521311753
 40
0.3644301521311753
 40
0.4126564305576437
 40
0.4126564305576437
 40
0.4126564305576437
 40
0.4507460442454521
 40
0.4507460442454521
 40
0.4507460442454521
 40
0.5416223683372128
 40
0.5416223683372128
 40
0.5416223683372128
 40
0.6064350064519929
 40
0.6064350064519929
 40
0.6064350064519929
 40
0.6930611028177519
 40
0.6930611028177519
 40
0.6930611028177519
 40
0.7639276296833437
 40
0.7639276296833437
 40
0.7639276296833437
 40
0.8510419090128457
 40
0.8510419090128457
 40
0.8510419090128457
 40
0.8824514091076069
 40
0.8824514091076069
 40
0.8824514091076069
 40
0.9352721995745331
 40
0.9352721995745331
 40
0.9352721995745331
 40
0.959911838635361
 40
0.959911838635361
 40
0.959911838635361
 40
1.0
 40
1.0
 40
1.0
 40
1.0
 10
6.6776666666666662
 20
-0.8855
 30
0.0
 10
6.6781734643243222
 20
-0.885567044682018
 30
0.0
 10
6.6786745211228773
 20
-0.8856827614009862
 30
0.0
 10
6.6791666666666663
 20
-0.8858333333333333
 30
0.0
 10
6.68039616172726
 20
-0.8862094973551781
 30
0.0
 10
6.6813296282036871
 20
-0.8873203795522268
 30
0.0
 10
6.6825833333333335
 20
-0.8875833333333333
 30
0.0
 10
6.6838080488685989
 20
-0.8878402067983632
 30
0.0
 10
6.6851063885906381
 20
-0.8877202233384562
 30
0.0
 10
6.6863333333333328
 20
-0.8875833333333333
 30
0.0
 10
6.6870284683539003
 20
-0.887505777243629
 30
0.0
 10
6.6877219545751307
 20
-0.8872377835968829
 30
0.0
 10
6.688416666666666
 20
-0.8871666666666667
 30
0.0
 10
6.6892454080881247
 20
-0.8870818292979851
 30
0.0
 10
6.6900892711089819
 20
-0.8871323471175873
 30
0.0
 10
6.6909166666666664
 20
-0.8875833333333333
 30
0.0
 10
6.6911090322264428
 20
-0.8876881854987063
 30
0.0
 10
6.6912295318671333
 20
-0.8878303946500996
 30
0.0
 10
6.6913333333333327
 20
-0.888
 30
0.0
 10
6.6916684047234787
 20
-0.8885474864898139
 30
0.0
 10
6.6919229840128134
 20
-0.8891223882740549
 30
0.0
 10
6.6922499999999996
 20
-0.8896666666666666
 30
0.0
 10
6.6925082806102409
 20
-0.8900965433726789
 30
0.0
 10
6.692759371719613
 20
-0.8905185268296112
 30
0.0
 10
6.6930833333333331
 20
-0.8909166666666667
 30
0.0
 10
6.6938562590144137
 20
-0.8918665708889213
 30
0.0
 10
6.6948978907933396
 20
-0.8924381624230137
 30
0.0
 10
6.6959999999999997
 20
-0.893
 30
0.0
 10
6.6967860199660159
 20
-0.8934007003575512
 30
0.0
 10
6.6975852796586768
 20
-0.8936564893803989
 30
0.0
 10
6.6984166666666667
 20
-0.8938333333333333
 30
0.0
 10
6.6995278667839013
 20
-0.8940696962056711
 30
0.0
 10
6.7007448357323023
 20
-0.8939967961687164
 30
0.0
 10
6.7018333333333331
 20
-0.8938333333333333
 30
0.0
 10
6.7027238045391568
 20
-0.8936996086949023
 30
0.0
 10
6.7034815218419643
 20
-0.892695754796952
 30
0.0
 10
6.7043333333333335
 20
-0.8925833333333333
 30
0.0
 10
6.7053804418551879
 20
-0.8924451367090951
 30
0.0
 10
6.706619558144812
 20
-0.8928640481052335
 30
0.0
 10
6.7076666666666664
 20
-0.8934166666666666
 30
0.0
 10
6.7080442070133186
 20
-0.8936159161225686
 30
0.0
 10
6.7081308343161679
 20
-0.8941779750916883
 30
0.0
 10
6.7084999999999999
 20
-0.8943333333333333
 30
0.0
 10
6.7091208192799785
 20
-0.8945945964895277
 30
0.0
 10
6.709966289133221
 20
-0.8945016521521202
 30
0.0
 10
6.7105833333333331
 20
-0.8943333333333333
 30
0.0
 10
6.7108711697371604
 20
-0.8942548166185057
 30
0.0
 10
6.7111267884074799
 20
-0.8938403497505538
 30
0.0
 10
6.7114166666666666
 20
-0.8938333333333333
 30
0.0
 10
6.711888292342743
 20
-0.8938219177738339
 30
0.0
 10
6.7124556457918949
 20
-0.8940083478980455
 30
0.0
 10
6.7129166666666666
 20
-0.8943333333333333
 30
0.0
  0
LINE
  5
571
100
AcDbEntity
  8
5
  6
DASHDOT
 62
     2
100
AcDbLine
 10
6.737833
 20
-0.719667
 30
0.0
 11
6.71725
 21
-0.801833
 31
0.0
  0
LINE
  5
572
100
AcDbEntity
  8
5
  6
DASHDOT
 62
     2
100
AcDbLine
 10
6.71725
 20
-0.801833
 30
0.0
 11
6.687917
 21
-0.919583
 31
0.0
  0
LINE
  5
573
100
AcDbEntity
  8
5
  6
HIDDEN
 62
   151
100
AcDbLine
 10
7.168667
 20
-0.759167
 30
0.0
 11
7.168667
 21
-0.801833
 31
0.0
  0
LINE
  5
574
100
AcDbEntity
  8
5
  6
CONTINUOUS
 62
   151
100
AcDbLine
 10
7.168667
 20
-0.801833
 30
0.0
 11
7.168667
 21
-0.894083
 31
0.0
  0
LINE
  5
575
100
AcDbEntity
  8
5
  6
HIDDEN
 62
   151
100
AcDbLine
 10
7.205
 20
-0.759083
 30
0.0
 11
7.205
 21
-0.801833
 31
0.0
  0
LINE
  5
576
100
AcDbEntity
  8
5
  6
CONTINUOUS
 62
   151
100
AcDbLine
 10
7.205
 20
-0.801833
 30
0.0
 11
7.205
 21
-0.894167
 31
0.0
  0
LINE
  5
577
100
AcDbEntity
  8
5
  6
HIDDEN
 62
   151
100
AcDbLine
 10
7.17025
 20
-0.759083
 30
0.0
 11
7.170167
 21
-0.801833
 31
0.0
  0
LINE
  5
578
100
AcDbEntity
  8
5
  6
CONTINUOUS
 62
   151
100
AcDbLine
 10
7.170167
 20
-0.801833
 30
0.0
 11
7.170167
 21
-0.894083
 31
0.0
  0
LINE
  5
579
100
AcDbEntity
  8
5
  6
HIDDEN
 62
   151
100
AcDbLine
 10
7.2035
 20
-0.759083
 30
0.0
 11
7.203417
 21
-0.801833
 31
0.0
  0
LINE
  5
57A
100
AcDbEntity
  8
5
  6
CONTINUOUS
 62
   151
100
AcDbLine
 10
7.203417
 20
-0.801833
 30
0.0
 11
7.203417
 21
-0.894083
 31
0.0
  0
LINE
  5
57B
100
AcDbEntity
  8
5
  6
HIDDEN
 62
   151
100
AcDbLine
 10
7.168667
 20
-0.759167
 30
0.0
 11
7.205
 21
-0.759083
 31
0.0
  0
SPLINE
  5
57C
100
AcDbEntity
  8
5
  6
CONTINUOUS
 62
   151
100
AcDbSpline
210
0.0
220
0.0
230
1.0
 70
     8
 71
     3
 72
    56
 73
    52
 74
     0
 42
0.0
 43
0.0
 12
0.9927662855131183
 22
0.1200629099617607
 32
0.0
 13
0.9364488009099043
 23
-0.3508042805816408
 33
0.0
 40
0.0
 40
0.0
 40
0.0
 40
0.0
 40
0.0379164164179521
 40
0.0379164164179521
 40
0.0379164164179521
 40
0.135498399116011
 40
0.135498399116011
 40
0.135498399116011
 40
0.2310354706825288
 40
0.2310354706825288
 40
0.2310354706825288
 40
0.2847400671271531
 40
0.2847400671271531
 40
0.2847400671271531
 40
0.3503456270334429
 40
0.3503456270334429
 40
0.3503456270334429
 40
0.3638336006424643
 40
0.3638336006424643
 40
0.3638336006424643
 40
0.4115905237998597
 40
0.4115905237998597
 40
0.4115905237998597
 40
0.4504318667805863
 40
0.4504318667805863
 40
0.4504318667805863
 40
0.5411812673613028
 40
0.5411812673613028
 40
0.5411812673613028
 40
0.6067868272675926
 40
0.6067868272675926
 40
0.6067868272675926
 40
0.6936387105098815
 40
0.6936387105098815
 40
0.6936387105098815
 40
0.7651966264391273
 40
0.7651966264391273
 40
0.7651966264391273
 40
0.8515617971689071
 40
0.8515617971689071
 40
0.8515617971689071
 40
0.8848679740000547
 40
0.8848679740000547
 40
0.8848679740000547
 40
0.9375296634694326
 40
0.9375296634694326
 40
0.9375296634694326
 40
0.9599217209816101
 40
0.9599217209816101
 40
0.9599217209816101
 40
1.0
 40
1.0
 40
1.0
 40
1.0
 10
7.1686666666666667
 20
-0.8940833333333333
 30
0.0
 10
7.1691635019680611
 20
-0.894023247195309
 30
0.0
 10
7.1696805041350071
 20
-0.8940404434862689
 30
0.0
 10
7.1701666666666668
 20
-0.8940833333333333
 30
0.0
 10
7.1714178583201678
 20
-0.8941937149756286
 30
0.0
 10
7.1726671453401343
 20
-0.895038423147233
 30
0.0
 10
7.1739166666666661
 20
-0.895
 30
0.0
 10
7.1751400032406538
 20
-0.8949623820415866
 30
0.0
 10
7.1763622506696363
 20
-0.8945290416818611
 30
0.0
 10
7.1775833333333328
 20
-0.8940833333333333
 30
0.0
 10
7.1782697449074391
 20
-0.8938327857019563
 30
0.0
 10
7.1788452182104239
 20
-0.8934229463317579
 30
0.0
 10
7.1795
 20
-0.8931666666666667
 30
0.0
 10
7.1802998817376062
 20
-0.8928535953090176
 30
0.0
 10
7.1813036324298869
 20
-0.892545819306806
 30
0.0
 10
7.1820833333333329
 20
-0.8929166666666667
 30
0.0
 10
7.1822436335460536
 20
-0.8929929098907153
 30
0.0
 10
7.182375686175706
 20
-0.8931193187675949
 30
0.0
 10
7.1825000000000001
 20
-0.89325
 30
0.0
 10
7.1829401584645876
 20
-0.8937127035724559
 30
0.0
 10
7.1833079156482995
 20
-0.8942137400661028
 30
0.0
 10
7.1837499999999999
 20
-0.8946666666666666
 30
0.0
 10
7.1841095531034149
 20
-0.8950350379157862
 30
0.0
 10
7.1844763371252327
 20
-0.8953712212512714
 30
0.0
 10
7.1849166666666662
 20
-0.8956666666666666
 30
0.0
 10
7.1859454581263993
 20
-0.8963569490383329
 30
0.0
 10
7.1870692369218929
 20
-0.8967043134867854
 30
0.0
 10
7.18825
 20
-0.897
 30
0.0
 10
7.1891036102978099
 20
-0.89721376096296
 30
0.0
 10
7.1899770659243583
 20
-0.8972803077138013
 30
0.0
 10
7.190833333333333
 20
-0.89725
 30
0.0
 10
7.1919669024566621
 20
-0.8972098771502877
 30
0.0
 10
7.1930789303071396
 20
-0.8968604393507778
 30
0.0
 10
7.1941666666666668
 20
-0.8964166666666666
 30
0.0
 10
7.1950628607854643
 20
-0.8960510390344744
 30
0.0
 10
7.195413908209261
 20
-0.8948623101933929
 30
0.0
 10
7.19625
 20
-0.8945
 30
0.0
 10
7.1972591016390748
 20
-0.8940627180961996
 30
0.0
 10
7.1986608405767436
 20
-0.8942124267948276
 30
0.0
 10
7.1996666666666664
 20
-0.8945
 30
0.0
 10
7.2000545570781513
 20
-0.8946109007710218
 30
0.0
 10
7.2003609524656138
 20
-0.8952240152232404
 30
0.0
 10
7.2007499999999993
 20
-0.89525
 30
0.0
 10
7.2013651381633652
 20
-0.8952910855395255
 30
0.0
 10
7.2021350473814607
 20
-0.8950041727044048
 30
0.0
 10
7.20275
 20
-0.8946666666666666
 30
0.0
 10
7.2030114814401189
 20
-0.8945231571309134
 30
0.0
 10
7.2031460845760868
 20
-0.8941749886411131
 30
0.0
 10
7.2034166666666666
 20
-0.8940833333333333
 30
0.0
 10
7.2039009662678861
 20
-0.8939192846747088
 30
0.0
 10
7.2045056202477689
 20
-0.8939814664366627
 30
0.0
 10
7.2050000000000001
 20
-0.8941666666666667
 30
0.0
  0
LINE
  5
57D
100
AcDbEntity
  8
5
  6
DASHDOT
 62
     2
100
AcDbLine
 10
7.18675
 20
-0.71875
 30
0.0
 11
7.18675
 21
-0.801833
 31
0.0
  0
LINE
  5
57E
100
AcDbEntity
  8
5
  6
DASHDOT
 62
     2
100
AcDbLine
 10
7.18675
 20
-0.801833
 30
0.0
 11
7.186833
 21
-0.92475
 31
0.0
  0
LINE
  5
57F
100
AcDbEntity
  8
5
  6
HIDDEN
 62
   151
100
AcDbLine
 10
6.826583
 20
-0.758667
 30
0.0
 11
6.826583
 21
-0.801833
 31
0.0
  0
LINE
  5
580
100
AcDbEntity
  8
5
  6
CONTINUOUS
 62
   151
100
AcDbLine
 10
6.826583
 20
-0.801833
 30
0.0
 11
6.826583
 21
-0.893583
 31
0.0
  0
LINE
  5
581
100
AcDbEntity
  8
5
  6
HIDDEN
 62
   151
100
AcDbLine
 10
6.862917
 20
-0.758583
 30
0.0
 11
6.862917
 21
-0.801833
 31
0.0
  0
LINE
  5
582
100
AcDbEntity
  8
5
  6
CONTINUOUS
 62
   151
100
AcDbLine
 10
6.862917
 20
-0.801833
 30
0.0
 11
6.862917
 21
-0.893667
 31
0.0
  0
LINE
  5
583
100
AcDbEntity
  8
5
  6
HIDDEN
 62
   151
100
AcDbLine
 10
6.82825
 20
-0.758583
 30
0.0
 11
6.828167
 21
-0.801833
 31
0.0
  0
LINE
  5
584
100
AcDbEntity
  8
5
  6
CONTINUOUS
 62
   151
100
AcDbLine
 10
6.828167
 20
-0.801833
 30
0.0
 11
6.828167
 21
-0.893583
 31
0.0
  0
LINE
  5
585
100
AcDbEntity
  8
5
  6
HIDDEN
 62
   151
100
AcDbLine
 10
6.861417
 20
-0.758583
 30
0.0
 11
6.861333
 21
-0.801833
 31
0.0
  0
LINE
  5
586
100
AcDbEntity
  8
5
  6
CONTINUOUS
 62
   151
100
AcDbLine
 10
6.861333
 20
-0.801833
 30
0.0
 11
6.861333
 21
-0.893583
 31
0.0
  0
LINE
  5
587
100
AcDbEntity
  8
5
  6
HIDDEN
 62
   151
100
AcDbLine
 10
6.826583
 20
-0.758667
 30
0.0
 11
6.862917
 21
-0.758583
 31
0.0
  0
SPLINE
  5
588
100
AcDbEntity
  8
5
  6
CONTINUOUS
 62
   151
100
AcDbSpline
210
0.0
220
0.0
230
1.0
 70
     8
 71
     3
 72
    56
 73
    52
 74
     0
 42
0.0
 43
0.0
 12
0.9925928367601306
 22
0.1214885196735765
 32
0.0
 13
0.9364488009094212
 23
-0.3508042805829299
 33
0.0
 40
0.0
 40
0.0
 40
0.0
 40
0.0
 40
0.0400345084901995
 40
0.0400345084901995
 40
0.0400345084901995
 40
0.135599328433493
 40
0.135599328433493
 40
0.135599328433493
 40
0.2311641483767864
 40
0.2311641483767864
 40
0.2311641483767864
 40
0.2848843431158979
 40
0.2848843431158979
 40
0.2848843431158979
 40
0.3507453220894842
 40
0.3507453220894842
 40
0.3507453220894842
 40
0.3656446233710055
 40
0.3656446233710055
 40
0.3656446233710055
 40
0.4148348871188775
 40
0.4148348871188775
 40
0.4148348871188775
 40
0.4521129270153289
 40
0.4521129270153289
 40
0.4521129270153289
 40
0.5448483613539246
 40
0.5448483613539246
 40
0.5448483613539246
 40
0.6083760188611689
 40
0.6083760188611689
 40
0.6083760188611689
 40
0.6952531279005265
 40
0.6952531279005265
 40
0.6952531279005265
 40
0.7668318275525716
 40
0.7668318275525716
 40
0.7668318275525716
 40
0.8532220827156337
 40
0.8532220827156337
 40
0.8532220827156337
 40
0.885385253775673
 40
0.885385253775673
 40
0.885385253775673
 40
0.9375115191992877
 40
0.9375115191992877
 40
0.9375115191992877
 40
0.9599100803988658
 40
0.9599100803988658
 40
0.9599100803988658
 40
1.0
 40
1.0
 40
1.0
 40
1.0
 10
6.8265833333333328
 20
-0.8935833333333333
 30
0.0
 10
6.8271076494733771
 20
-0.8935191595962927
 30
0.0
 10
6.8276546470138122
 20
-0.8935374023459728
 30
0.0
 10
6.8281666666666663
 20
-0.8935833333333333
 30
0.0
 10
6.8293888888888894
 20
-0.8936929734089197
 30
0.0
 10
6.8306111111111107
 20
-0.8945379705235561
 30
0.0
 10
6.831833333333333
 20
-0.8945
 30
0.0
 10
6.8330555555555561
 20
-0.8944620294764439
 30
0.0
 10
6.8342777777777775
 20
-0.894035297158524
 30
0.0
 10
6.8354999999999997
 20
-0.8935833333333333
 30
0.0
 10
6.8361870521582224
 20
-0.8933292692884401
 30
0.0
 10
6.8367655356920212
 20
-0.8929325698892661
 30
0.0
 10
6.837416666666666
 20
-0.8926666666666666
 30
0.0
 10
6.8382149534867054
 20
-0.8923406692156581
 30
0.0
 10
6.8393378087287742
 20
-0.8917665069173566
 30
0.0
 10
6.8399999999999999
 20
-0.8923333333333333
 30
0.0
 10
6.8401498032280985
 20
-0.8924615627899489
 30
0.0
 10
6.8402814164064445
 20
-0.8926072017119134
 30
0.0
 10
6.8404166666666661
 20
-0.8927499999999999
 30
0.0
 10
6.8408631974030101
 20
-0.8932214506620815
 30
0.0
 10
6.8413023656298106
 20
-0.8936964776978864
 30
0.0
 10
6.8417499999999993
 20
-0.8941666666666667
 30
0.0
 10
6.842089232413886
 20
-0.8945229917156011
 30
0.0
 10
6.8424298757003159
 20
-0.8948579267845374
 30
0.0
 10
6.8428333333333331
 20
-0.8951666666666667
 30
0.0
 10
6.8438370024891944
 20
-0.8959347093842141
 30
0.0
 10
6.8450422422593613
 20
-0.8962102450241427
 30
0.0
 10
6.8462499999999995
 20
-0.8965
 30
0.0
 10
6.8470773646491896
 20
-0.8966984942972291
 30
0.0
 10
6.8479211114099447
 20
-0.8967749395471316
 30
0.0
 10
6.8487499999999999
 20
-0.8967499999999999
 30
0.0
 10
6.8498835447779021
 20
-0.8967158939768823
 30
0.0
 10
6.8509953318856667
 20
-0.896361474127626
 30
0.0
 10
6.8520833333333329
 20
-0.8959166666666666
 30
0.0
 10
6.8529797458602308
 20
-0.8955501864740928
 30
0.0
 10
6.8533196645012922
 20
-0.8943492944073437
 30
0.0
 10
6.8541666666666661
 20
-0.894
 30
0.0
 10
6.8551889363299319
 20
-0.8935784271979773
 30
0.0
 10
6.8565610636700676
 20
-0.8937200731921655
 30
0.0
 10
6.8575833333333334
 20
-0.894
 30
0.0
 10
6.8579639252645297
 20
-0.8941042170067407
 30
0.0
 10
6.8582851885236131
 20
-0.8946256687692538
 30
0.0
 10
6.8586666666666662
 20
-0.8946666666666666
 30
0.0
 10
6.859284921343761
 20
-0.8947331112121491
 30
0.0
 10
6.860048595553315
 20
-0.8944816317296667
 30
0.0
 10
6.860666666666666
 20
-0.8941666666666667
 30
0.0
 10
6.8609322506970125
 20
-0.8940313267534387
 30
0.0
 10
6.8610619855156347
 20
-0.8936700353646819
 30
0.0
 10
6.8613333333333335
 20
-0.8935833333333333
 30
0.0
 10
6.8618190034662714
 20
-0.8934281502644276
 30
0.0
 10
6.8624222869144358
 20
-0.8934814664366627
 30
0.0
 10
6.8629166666666661
 20
-0.8936666666666666
 30
0.0
  0
LINE
  5
589
100
AcDbEntity
  8
5
  6
DASHDOT
 62
     2
100
AcDbLine
 10
6.84475
 20
-0.718167
 30
0.0
 11
6.84475
 21
-0.801833
 31
0.0
  0
LINE
  5
58A
100
AcDbEntity
  8
5
  6
DASHDOT
 62
     2
100
AcDbLine
 10
6.84475
 20
-0.801833
 30
0.0
 11
6.84475
 21
-0.92425
 31
0.0
  0
LINE
  5
58B
100
AcDbEntity
  8
5
  6
HIDDEN
 62
   151
100
AcDbLine
 10
7.05
 20
-0.760417
 30
0.0
 11
7.05
 21
-0.801833
 31
0.0
  0
LINE
  5
58C
100
AcDbEntity
  8
5
  6
CONTINUOUS
 62
   151
100
AcDbLine
 10
7.05
 20
-0.801833
 30
0.0
 11
7.05
 21
-0.895333
 31
0.0
  0
LINE
  5
58D
100
AcDbEntity
  8
5
  6
HIDDEN
 62
   151
100
AcDbLine
 10
7.086333
 20
-0.760333
 30
0.0
 11
7.086333
 21
-0.801833
 31
0.0
  0
LINE
  5
58E
100
AcDbEntity
  8
5
  6
CONTINUOUS
 62
   151
100
AcDbLine
 10
7.086333
 20
-0.801833
 30
0.0
 11
7.086333
 21
-0.895417
 31
0.0
  0
LINE
  5
58F
100
AcDbEntity
  8
5
  6
HIDDEN
 62
   151
100
AcDbLine
 10
7.051667
 20
-0.760333
 30
0.0
 11
7.051583
 21
-0.801833
 31
0.0
  0
LINE
  5
590
100
AcDbEntity
  8
5
  6
CONTINUOUS
 62
   151
100
AcDbLine
 10
7.051583
 20
-0.801833
 30
0.0
 11
7.051583
 21
-0.895333
 31
0.0
  0
LINE
  5
591
100
AcDbEntity
  8
5
  6
HIDDEN
 62
   151
100
AcDbLine
 10
7.084833
 20
-0.760333
 30
0.0
 11
7.08475
 21
-0.801833
 31
0.0
  0
LINE
  5
592
100
AcDbEntity
  8
5
  6
CONTINUOUS
 62
   151
100
AcDbLine
 10
7.08475
 20
-0.801833
 30
0.0
 11
7.08475
 21
-0.895333
 31
0.0
  0
LINE
  5
593
100
AcDbEntity
  8
5
  6
HIDDEN
 62
   151
100
AcDbLine
 10
7.05
 20
-0.760417
 30
0.0
 11
7.086333
 21
-0.760333
 31
0.0
  0
SPLINE
  5
594
100
AcDbEntity
  8
5
  6
CONTINUOUS
 62
   151
100
AcDbSpline
210
0.0
220
0.0
230
1.0
 70
     8
 71
     3
 72
    56
 73
    52
 74
     0
 42
0.0
 43
0.0
 12
0.9925928367602308
 22
0.1214885196727568
 32
0.0
 13
0.9009071801263846
 23
-0.4340118118170588
 33
0.0
 40
0.0
 40
0.0
 40
0.0
 40
0.0
 40
0.0401184491371348
 40
0.0401184491371348
 40
0.0401184491371348
 40
0.1358836405377737
 40
0.1358836405377737
 40
0.1358836405377737
 40
0.2316488319384126
 40
0.2316488319384126
 40
0.2316488319384126
 40
0.2846049153891984
 40
0.2846049153891984
 40
0.2846049153891984
 40
0.3506039855593879
 40
0.3506039855593879
 40
0.3506039855593879
 40
0.3641241652456091
 40
0.3641241652456091
 40
0.3641241652456091
 40
0.4149757546813225
 40
0.4149757546813225
 40
0.4149757546813225
 40
0.4509332584054295
 40
0.4509332584054295
 40
0.4509332584054295
 40
0.5438631318078672
 40
0.5438631318078672
 40
0.5438631318078672
 40
0.6075239882195201
 40
0.6075239882195201
 40
0.6075239882195201
 40
0.6945832531291919
 40
0.6945832531291919
 40
0.6945832531291919
 40
0.764899601356886
 40
0.764899601356886
 40
0.764899601356886
 40
0.8514709916001768
 40
0.8514709916001768
 40
0.8514709916001768
 40
0.8837015994163567
 40
0.8837015994163567
 40
0.8837015994163567
 40
0.9359371583621599
 40
0.9359371583621599
 40
0.9359371583621599
 40
0.9598260235710487
 40
0.9598260235710487
 40
0.9598260235710487
 40
1.0
 40
1.0
 40
1.0
 40
1.0
 10
7.0499999999999998
 20
-0.8953333333333333
 30
0.0
 10
7.0505243161400442
 20
-0.8952691595962927
 30
0.0
 10
7.0510713136804792
 20
-0.8952874023459727
 30
0.0
 10
7.0515833333333333
 20
-0.8953333333333333
 30
0.0
 10
7.0528055555555556
 20
-0.8954429734089198
 30
0.0
 10
7.0540277777777769
 20
-0.8963161688212959
 30
0.0
 10
7.05525
 20
-0.89625
 30
0.0
 10
7.0564722222222223
 20
-0.896183831178704
 30
0.0
 10
7.0576944444444436
 20
-0.8957651742226334
 30
0.0
 10
7.0589166666666667
 20
-0.8953333333333333
 30
0.0
 10
7.0595925291700334
 20
-0.8950945346441984
 30
0.0
 10
7.0601839807651023
 20
-0.8947453618820472
 30
0.0
 10
7.0608333333333331
 20
-0.8945
 30
0.0
 10
7.0616426202541769
 20
-0.8941942059341419
 30
0.0
 10
7.0626271021721987
 20
-0.8938280881681752
 30
0.0
 10
7.063416666666666
 20
-0.8941666666666667
 30
0.0
 10
7.0635784121853771
 20
-0.8942360258580264
 30
0.0
 10
7.0637085458820197
 20
-0.8943696552577165
 30
0.0
 10
7.0638333333333332
 20
-0.8945
 30
0.0
 10
7.0643026791843671
 20
-0.8949902477240345
 30
0.0
 10
7.0646951135795701
 20
-0.8955205614831447
 30
0.0
 10
7.0651666666666664
 20
-0.896
 30
0.0
 10
7.0655001050522417
 20
-0.8963390142264304
 30
0.0
 10
7.065840401537276
 20
-0.8966481955438838
 30
0.0
 10
7.0662500000000001
 20
-0.8969166666666666
 30
0.0
 10
7.0673085810844594
 20
-0.897610513148443
 30
0.0
 10
7.0684601987071485
 20
-0.8979515392105374
 30
0.0
 10
7.0696666666666665
 20
-0.89825
 30
0.0
 10
7.0704931477617556
 20
-0.8984544581442633
 30
0.0
 10
7.0713380103392458
 20
-0.8985275472216676
 30
0.0
 10
7.072166666666666
 20
-0.8985
 30
0.0
 10
7.0732998938143119
 20
-0.8984623278572756
 30
0.0
 10
7.0744117072812767
 20
-0.8981077922624872
 30
0.0
 10
7.0754999999999999
 20
-0.8976666666666666
 30
0.0
 10
7.0763789962775672
 20
-0.8973103767182039
 30
0.0
 10
7.0767513014119148
 20
-0.8961732667476458
 30
0.0
 10
7.0775833333333331
 20
-0.8958333333333333
 30
0.0
 10
7.0786077062136012
 20
-0.8954148174546093
 30
0.0
 10
7.0799756271197314
 20
-0.8955570549488073
 30
0.0
 10
7.0809999999999995
 20
-0.8958333333333333
 30
0.0
 10
7.0813813749608112
 20
-0.8959361920287374
 30
0.0
 10
7.081704106376602
 20
-0.8964500932566848
 30
0.0
 10
7.0820833333333333
 20
-0.8965
 30
0.0
 10
7.0826979395537659
 20
-0.8965808829497446
 30
0.0
 10
7.0834689026184092
 20
-0.8963270183290226
 30
0.0
 10
7.0840833333333331
 20
-0.896
 30
0.0
 10
7.0843643306620736
 20
-0.8958504448513519
 30
0.0
 10
7.084467212186162
 20
-0.8954344575384754
 30
0.0
 10
7.0847499999999997
 20
-0.8953333333333333
 30
0.0
 10
7.0852255651165592
 20
-0.8951632724535783
 30
0.0
 10
7.0858585637208193
 20
-0.8951879465229398
 30
0.0
 10
7.0863333333333332
 20
-0.8954166666666666
 30
0.0
  0
LINE
  5
595
100
AcDbEntity
  8
5
  6
DASHDOT
 62
     2
100
AcDbLine
 10
7.068167
 20
-0.72
 30
0.0
 11
7.068167
 21
-0.801833
 31
0.0
  0
LINE
  5
596
100
AcDbEntity
  8
5
  6
DASHDOT
 62
     2
100
AcDbLine
 10
7.068167
 20
-0.801833
 30
0.0
 11
7.068167
 21
-0.926
 31
0.0
  0
LINE
  5
597
100
AcDbEntity
  8
5
  6
HIDDEN
 62
   151
100
AcDbLine
 10
6.93125
 20
-0.760417
 30
0.0
 11
6.93125
 21
-0.801833
 31
0.0
  0
LINE
  5
598
100
AcDbEntity
  8
5
  6
CONTINUOUS
 62
   151
100
AcDbLine
 10
6.93125
 20
-0.801833
 30
0.0
 11
6.93125
 21
-0.895333
 31
0.0
  0
LINE
  5
599
100
AcDbEntity
  8
5
  6
HIDDEN
 62
   151
100
AcDbLine
 10
6.967667
 20
-0.760333
 30
0.0
 11
6.967667
 21
-0.801833
 31
0.0
  0
LINE
  5
59A
100
AcDbEntity
  8
5
  6
CONTINUOUS
 62
   151
100
AcDbLine
 10
6.967667
 20
-0.801833
 30
0.0
 11
6.967667
 21
-0.895417
 31
0.0
  0
LINE
  5
59B
100
AcDbEntity
  8
5
  6
HIDDEN
 62
   151
100
AcDbLine
 10
6.932917
 20
-0.760333
 30
0.0
 11
6.932833
 21
-0.801833
 31
0.0
  0
LINE
  5
59C
100
AcDbEntity
  8
5
  6
CONTINUOUS
 62
   151
100
AcDbLine
 10
6.932833
 20
-0.801833
 30
0.0
 11
6.932833
 21
-0.895333
 31
0.0
  0
LINE
  5
59D
100
AcDbEntity
  8
5
  6
HIDDEN
 62
   151
100
AcDbLine
 10
6.966167
 20
-0.760333
 30
0.0
 11
6.966083
 21
-0.801833
 31
0.0
  0
LINE
  5
59E
100
AcDbEntity
  8
5
  6
CONTINUOUS
 62
   151
100
AcDbLine
 10
6.966083
 20
-0.801833
 30
0.0
 11
6.966083
 21
-0.895333
 31
0.0
  0
LINE
  5
59F
100
AcDbEntity
  8
5
  6
HIDDEN
 62
   151
100
AcDbLine
 10
6.93125
 20
-0.760417
 30
0.0
 11
6.967667
 21
-0.760333
 31
0.0
  0
SPLINE
  5
5A0
100
AcDbEntity
  8
5
  6
CONTINUOUS
 62
   151
100
AcDbSpline
210
0.0
220
0.0
230
1.0
 70
     8
 71
     3
 72
    56
 73
    52
 74
     0
 42
0.0
 43
0.0
 12
0.9925928367602049
 22
0.1214885196729682
 32
0.0
 13
0.8709961816138462
 23
-0.4912897837469248
 33
0.0
 40
0.0
 40
0.0
 40
0.0
 40
0.0
 40
0.0400159320725761
 40
0.0400159320725761
 40
0.0400159320725761
 40
0.1355364089710235
 40
0.1355364089710235
 40
0.1355364089710235
 40
0.2310568858694708
 40
0.2310568858694708
 40
0.2310568858694708
 40
0.2858155297582592
 40
0.2858155297582592
 40
0.2858155297582592
 40
0.3495577333396928
 40
0.3495577333396928
 40
0.3495577333396928
 40
0.364745048594762
 40
0.364745048594762
 40
0.364745048594762
 40
0.4140925886738578
 40
0.4140925886738578
 40
0.4140925886738578
 40
0.449958208045256
 40
0.449958208045256
 40
0.449958208045256
 40
0.5426506122025974
 40
0.5426506122025974
 40
0.5426506122025974
 40
0.6061487922330099
 40
0.6061487922330099
 40
0.6061487922330099
 40
0.6929855894134166
 40
0.6929855894134166
 40
0.6929855894134166
 40
0.7631222540848958
 40
0.7631222540848958
 40
0.7631222540848958
 40
0.8515785249821692
 40
0.8515785249821692
 40
0.8515785249821692
 40
0.8819531554923076
 40
0.8819531554923076
 40
0.8819531554923076
 40
0.9361008619602115
 40
0.9361008619602115
 40
0.9361008619602115
 40
0.9599286825278062
 40
0.9599286825278062
 40
0.9599286825278062
 40
1.0
 40
1.0
 40
1.0
 40
1.0
 10
6.9312499999999995
 20
-0.8953333333333333
 30
0.0
 10
6.9317743161400438
 20
-0.8952691595962927
 30
0.0
 10
6.9323213136804789
 20
-0.8952874023459727
 30
0.0
 10
6.932833333333333
 20
-0.8953333333333333
 30
0.0
 10
6.9340555555555561
 20
-0.8954429734089198
 30
0.0
 10
6.9352777777777774
 20
-0.8963298066042243
 30
0.0
 10
6.9364999999999997
 20
-0.89625
 30
0.0
 10
6.9377222222222228
 20
-0.8961701933957756
 30
0.0
 10
6.9389444444444441
 20
-0.8957566161052564
 30
0.0
 10
6.9401666666666664
 20
-0.8953333333333333
 30
0.0
 10
6.9408673251389938
 20
-0.8950906797021477
 30
0.0
 10
6.9414887677510206
 20
-0.8947465273276921
 30
0.0
 10
6.9421666666666662
 20
-0.8945
 30
0.0
 10
6.9429557799028609
 20
-0.8942130280446307
 30
0.0
 10
6.9438684083402924
 20
-0.8939649295793722
 30
0.0
 10
6.9446666666666665
 20
-0.8941666666666667
 30
0.0
 10
6.9448568609206536
 20
-0.8942147328547059
 30
0.0
 10
6.9450216643553784
 20
-0.894352582305629
 30
0.0
 10
6.9451666666666663
 20
-0.8945
 30
0.0
 10
6.9456378169159176
 20
-0.8949789984575389
 30
0.0
 10
6.9459572705527206
 20
-0.8955342660537168
 30
0.0
 10
6.946416666666666
 20
-0.896
 30
0.0
 10
6.9467505541540087
 20
-0.8963384938016963
 30
0.0
 10
6.947086376373881
 20
-0.8966533943361295
 30
0.0
 10
6.9474999999999998
 20
-0.8969166666666666
 30
0.0
 10
6.9485689838623488
 20
-0.8975970772016945
 30
0.0
 10
6.9497101987071481
 20
-0.8979515392105374
 30
0.0
 10
6.9509166666666662
 20
-0.89825
 30
0.0
 10
6.9517431477617562
 20
-0.8984544581442633
 30
0.0
 10
6.9525880103392455
 20
-0.8985275472216676
 30
0.0
 10
6.9534166666666666
 20
-0.8985
 30
0.0
 10
6.9545498938143124
 20
-0.8984623278572756
 30
0.0
 10
6.9556617072812763
 20
-0.8981077922624872
 30
0.0
 10
6.9567499999999995
 20
-0.8976666666666666
 30
0.0
 10
6.9576289962775677
 20
-0.8973103767182039
 30
0.0
 10
6.9580082657039712
 20
-0.896181797641054
 30
0.0
 10
6.9588333333333328
 20
-0.8958333333333333
 30
0.0
 10
6.9598739075618514
 20
-0.895393850598502
 30
0.0
 10
6.9612920326277328
 20
-0.8955382237968921
 30
0.0
 10
6.9623333333333335
 20
-0.8958333333333333
 30
0.0
 10
6.9626909012464022
 20
-0.8959346697681444
 30
0.0
 10
6.9629782047489401
 20
-0.8964480632429914
 30
0.0
 10
6.9633333333333329
 20
-0.8965
 30
0.0
 10
6.9639664076464403
 20
-0.8965925856949093
 30
0.0
 10
6.9647837887744863
 20
-0.8963389334316155
 30
0.0
 10
6.9654166666666661
 20
-0.896
 30
0.0
 10
6.9656951660129875
 20
-0.8958508515776622
 30
0.0
 10
6.9658032790435271
 20
-0.8954375042064001
 30
0.0
 10
6.9660833333333327
 20
-0.8953333333333333
 30
0.0
 10
6.9665543014743108
 20
-0.8951581488629713
 30
0.0
 10
6.9672073229330369
 20
-0.8951575715198411
 30
0.0
 10
6.9676666666666662
 20
-0.8954166666666666
 30
0.0
  0
LINE
  5
5A1
100
AcDbEntity
  8
5
  6
DASHDOT
 62
     2
100
AcDbLine
 10
6.949417
 20
-0.72
 30
0.0
 11
6.949417
 21
-0.801833
 31
0.0
  0
LINE
  5
5A2
100
AcDbEntity
  8
5
  6
DASHDOT
 62
     2
100
AcDbLine
 10
6.949417
 20
-0.801833
 30
0.0
 11
6.9495
 21
-0.926
 31
0.0
  0
LINE
  5
5A3
100
AcDbEntity
  8
1
  6
CONTINUOUS
 62
   131
100
AcDbLine
 10
6.9145
 20
-0.91675
 30
0.0
 11
6.9145
 21
-0.966833
 31
0.0
  0
INSERT
  5
5A4
100
AcDbEntity
  8
1
  6
CONTINUOUS
 62
     2
100
AcDbBlockReference
  2
ARROW1
 10
6.81875
 20
-0.760833
 30
0.0
 41
0.21094
 42
0.21094
210
0.0
220
0.0
230
1.0
  0
ARC
  5
5A5
100
AcDbEntity
  8
1
  6
CONTINUOUS
 62
   131
100
AcDbCircle
 10
6.793625
 20
-0.699788
 30
0.0
 40
0.063175
210
0.0
220
0.0
230
1.0
100
AcDbArc
 50
266.331947
 51
284.319533
  0
INSERT
  5
5A6
100
AcDbEntity
  8
1
  6
CONTINUOUS
 62
     2
100
AcDbBlockReference
  2
ARROW1
 10
7.145
 20
-0.764417
 30
0.0
 41
0.21094
 42
0.21094
210
0.0
220
0.0
230
1.0
  0
ARC
  5
5A7
100
AcDbEntity
  8
1
  6
CONTINUOUS
 62
   131
100
AcDbCircle
 10
7.125042
 20
-0.816655
 30
0.0
 40
0.052998
210
0.0
220
0.0
230
1.0
100
AcDbArc
 50
78.802503
 51
101.197497
  0
LINE
  5
5A8
100
AcDbEntity
  8
5
  6
HIDDEN
 62
   151
100
AcDbLine
 10
7.756833
 20
-0.755917
 30
0.0
 11
7.792167
 21
-0.76475
 31
0.0
  0
SPLINE
  5
5A9
100
AcDbEntity
  8
5
  6
CONTINUOUS
 62
   151
100
AcDbSpline
210
0.0
220
0.0
230
1.0
 70
     8
 71
     3
 72
    56
 73
    52
 74
     0
 42
0.0
 43
0.0
 12
0.9935688491677729
 22
-0.1132295984424005
 32
0.0
 13
0.8091051200297799
 23
-0.5876639386091304
 33
0.0
 40
0.0
 40
0.0
 40
0.0
 40
0.0
 40
0.0388898807558777
 40
0.0388898807558777
 40
0.0388898807558777
 40
0.1341735900333056
 40
0.1341735900333056
 40
0.1341735900333056
 40
0.2290830859482674
 40
0.2290830859482674
 40
0.2290830859482674
 40
0.2824812306328605
 40
0.2824812306328605
 40
0.2824812306328605
 40
0.348405364842229
 40
0.348405364842229
 40
0.348405364842229
 40
0.3636143005777772
 40
0.3636143005777772
 40
0.3636143005777772
 40
0.4099185311604292
 40
0.4099185311604292
 40
0.4099185311604292
 40
0.4497129486588627
 40
0.4497129486588627
 40
0.4497129486588627
 40
0.5404287658579243
 40
0.5404287658579243
 40
0.5404287658579243
 40
0.6071243611178633
 40
0.6071243611178633
 40
0.6071243611178633
 40
0.6914883574867182
 40
0.6914883574867182
 40
0.6914883574867182
 40
0.763197754400245
 40
0.763197754400245
 40
0.763197754400245
 40
0.8522057687732508
 40
0.8522057687732508
 40
0.8522057687732508
 40
0.8821817106311755
 40
0.8821817106311755
 40
0.8821817106311755
 40
0.9370183082709311
 40
0.9370183082709311
 40
0.9370183082709311
 40
0.9605987621127193
 40
0.9605987621127193
 40
0.9605987621127193
 40
1.0
 40
1.0
 40
1.0
 40
1.0
 10
7.7241666666666662
 20
-0.8869166666666667
 30
0.0
 10
7.7246737599669464
 20
-0.8869744562912224
 30
0.0
 10
7.7251745839856953
 20
-0.8870954972844269
 30
0.0
 10
7.7256666666666662
 20
-0.88725
 30
0.0
 10
7.7268723135393946
 20
-0.887628545563707
 30
0.0
 10
7.7277625487740282
 20
-0.8887729428403677
 30
0.0
 10
7.7290000000000001
 20
-0.889
 30
0.0
 10
7.7302325913103811
 20
-0.8892261654245831
 30
0.0
 10
7.7315151267236271
 20
-0.8891222691754602
 30
0.0
 10
7.7327499999999993
 20
-0.889
 30
0.0
 10
7.7334447665377759
 20
-0.8889312087051063
 30
0.0
 10
7.7341388036877987
 20
-0.8887409204951662
 30
0.0
 10
7.7348333333333334
 20
-0.8886666666666666
 30
0.0
 10
7.7356907838278213
 20
-0.8885749945798465
 30
0.0
 10
7.7365839334156838
 20
-0.888341464859734
 30
0.0
 10
7.7374166666666664
 20
-0.889
 30
0.0
 10
7.7376087812336749
 20
-0.8891519264340445
 30
0.0
 10
7.7376489701930948
 20
-0.8893268093296843
 30
0.0
 10
7.7377500000000001
 20
-0.8895
 30
0.0
 10
7.7380575894037547
 20
-0.8900272861212975
 30
0.0
 10
7.7383583018057127
 20
-0.8905567374645629
 30
0.0
 10
7.7386666666666661
 20
-0.8910833333333333
 30
0.0
 10
7.7389316791690712
 20
-0.8915358962113059
 30
0.0
 10
7.7391959461035027
 20
-0.8919808493597138
 30
0.0
 10
7.7394999999999996
 20
-0.8924166666666666
 30
0.0
 10
7.7401931248005926
 20
-0.8934101608710052
 30
0.0
 10
7.7413079054600589
 20
-0.8939504353067184
 30
0.0
 10
7.7424166666666663
 20
-0.8945
 30
0.0
 10
7.7432318441181742
 20
-0.8949040479982872
 30
0.0
 10
7.7440592508883794
 20
-0.8951556291573688
 30
0.0
 10
7.7449166666666667
 20
-0.8953333333333333
 30
0.0
 10
7.7460012213711282
 20
-0.8955581133116417
 30
0.0
 10
7.747186638531983
 20
-0.8954948417768129
 30
0.0
 10
7.7482499999999996
 20
-0.8953333333333333
 30
0.0
 10
7.7491538572478138
 20
-0.8951960511563757
 30
0.0
 10
7.749894936363428
 20
-0.894132348863724
 30
0.0
 10
7.75075
 20
-0.894
 30
0.0
 10
7.7518113325411955
 20
-0.8938357243252402
 30
0.0
 10
7.753105334125471
 20
-0.8942549090234623
 30
0.0
 10
7.7541666666666664
 20
-0.8948333333333333
 30
0.0
 10
7.7545241001266847
 20
-0.8950281339207191
 30
0.0
 10
7.7545563106815196
 20
-0.8956111597686864
 30
0.0
 10
7.7549166666666665
 20
-0.8957499999999999
 30
0.0
 10
7.7555758851912504
 20
-0.896003987879241
 30
0.0
 10
7.756425271581123
 20
-0.8959179044398447
 30
0.0
 10
7.7570833333333331
 20
-0.8957499999999999
 30
0.0
 10
7.7573663084893596
 20
-0.8956777988959197
 30
0.0
 10
7.7576326308970414
 20
-0.8953602470466203
 30
0.0
 10
7.7579166666666666
 20
-0.8953333333333333
 30
0.0
 10
7.7583912699547364
 20
-0.895288362459288
 30
0.0
 10
7.7589581714689082
 20
-0.8954169887668753
 30
0.0
 10
7.7594166666666666
 20
-0.8957499999999999
 30
0.0
  0
LINE
  5
5AA
100
AcDbEntity
  8
5
  6
HIDDEN
 62
   151
100
AcDbLine
 10
7.756833
 20
-0.755917
 30
0.0
 11
7.744083
 21
-0.806833
 31
0.0
  0
LINE
  5
5AB
100
AcDbEntity
  8
5
  6
CONTINUOUS
 62
   151
100
AcDbLine
 10
7.744083
 20
-0.806833
 30
0.0
 11
7.724167
 21
-0.886917
 31
0.0
  0
LINE
  5
5AC
100
AcDbEntity
  8
5
  6
HIDDEN
 62
   151
100
AcDbLine
 10
7.792167
 20
-0.76475
 30
0.0
 11
7.781583
 21
-0.806833
 31
0.0
  0
LINE
  5
5AD
100
AcDbEntity
  8
5
  6
CONTINUOUS
 62
   151
100
AcDbLine
 10
7.781583
 20
-0.806833
 30
0.0
 11
7.759417
 21
-0.89575
 31
0.0
  0
LINE
  5
5AE
100
AcDbEntity
  8
5
  6
HIDDEN
 62
   151
100
AcDbLine
 10
7.758417
 20
-0.756333
 30
0.0
 11
7.74575
 21
-0.806833
 31
0.0
  0
LINE
  5
5AF
100
AcDbEntity
  8
5
  6
CONTINUOUS
 62
   151
100
AcDbLine
 10
7.74575
 20
-0.806833
 30
0.0
 11
7.725667
 21
-0.88725
 31
0.0
  0
LINE
  5
5B0
100
AcDbEntity
  8
5
  6
HIDDEN
 62
   151
100
AcDbLine
 10
7.790667
 20
-0.764333
 30
0.0
 11
7.78
 21
-0.806833
 31
0.0
  0
LINE
  5
5B1
100
AcDbEntity
  8
5
  6
CONTINUOUS
 62
   151
100
AcDbLine
 10
7.78
 20
-0.806833
 30
0.0
 11
7.757917
 21
-0.895333
 31
0.0
  0
LINE
  5
5B2
100
AcDbEntity
  8
5
  6
DASHDOT
 62
     2
100
AcDbLine
 10
7.783
 20
-0.726
 30
0.0
 11
7.734333
 21
-0.921
 31
0.0
  0
LINE
  5
5B3
100
AcDbEntity
  8
5
  6
HIDDEN
 62
   151
100
AcDbLine
 10
7.995
 20
-0.756833
 30
0.0
 11
8.007
 21
-0.804917
 31
0.0
  0
LINE
  5
5B4
100
AcDbEntity
  8
5
  6
CONTINUOUS
 62
   151
100
AcDbLine
 10
8.007
 20
-0.804917
 30
0.0
 11
8.02775
 21
-0.887833
 31
0.0
  0
LINE
  5
5B5
100
AcDbEntity
  8
5
  6
HIDDEN
 62
   151
100
AcDbLine
 10
7.959667
 20
-0.765667
 30
0.0
 11
7.9695
 21
-0.804917
 31
0.0
  0
LINE
  5
5B6
100
AcDbEntity
  8
5
  6
CONTINUOUS
 62
   151
100
AcDbLine
 10
7.9695
 20
-0.804917
 30
0.0
 11
7.9925
 21
-0.896667
 31
0.0
  0
LINE
  5
5B7
100
AcDbEntity
  8
5
  6
HIDDEN
 62
   151
100
AcDbLine
 10
7.993417
 20
-0.75725
 30
0.0
 11
8.005417
 21
-0.804917
 31
0.0
  0
LINE
  5
5B8
100
AcDbEntity
  8
5
  6
CONTINUOUS
 62
   151
100
AcDbLine
 10
8.005417
 20
-0.804917
 30
0.0
 11
8.02625
 21
-0.888167
 31
0.0
  0
LINE
  5
5B9
100
AcDbEntity
  8
5
  6
HIDDEN
 62
   151
100
AcDbLine
 10
7.961167
 20
-0.76525
 30
0.0
 11
7.971083
 21
-0.804917
 31
0.0
  0
LINE
  5
5BA
100
AcDbEntity
  8
5
  6
CONTINUOUS
 62
   151
100
AcDbLine
 10
7.971083
 20
-0.804917
 30
0.0
 11
7.994
 21
-0.89625
 31
0.0
  0
LINE
  5
5BB
100
AcDbEntity
  8
5
  6
HIDDEN
 62
   151
100
AcDbLine
 10
7.995
 20
-0.756833
 30
0.0
 11
7.959667
 21
-0.765667
 31
0.0
  0
SPLINE
  5
5BC
100
AcDbEntity
  8
5
  6
CONTINUOUS
 62
   151
100
AcDbSpline
210
0.0
220
0.0
230
1.0
 70
     8
 71
     3
 72
    56
 73
    52
 74
     0
 42
0.0
 43
0.0
 12
-0.9935205284961302
 22
-0.1136528022389697
 32
0.0
 13
-0.8308020716107643
 23
-0.5565679812990166
 33
0.0
 40
0.0
 40
0.0
 40
0.0
 40
0.0
 40
0.0389142868226524
 40
0.0389142868226524
 40
0.0389142868226524
 40
0.1361313073540241
 40
0.1361313073540241
 40
0.1361313073540241
 40
0.2311003654854245
 40
0.2311003654854245
 40
0.2311003654854245
 40
0.2849058188853733
 40
0.2849058188853733
 40
0.2849058188853733
 40
0.3511744614311159
 40
0.3511744614311159
 40
0.3511744614311159
 40
0.3646877653850568
 40
0.3646877653850568
 40
0.3646877653850568
 40
0.4128590778009316
 40
0.4128590778009316
 40
0.4128590778009316
 40
0.4509052787648521
 40
0.4509052787648521
 40
0.4509052787648521
 40
0.5429207120556971
 40
0.5429207120556971
 40
0.5429207120556971
 40
0.6096581633748437
 40
0.6096581633748437
 40
0.6096581633748437
 40
0.6940751039360886
 40
0.6940751039360886
 40
0.6940751039360886
 40
0.7658295034131467
 40
0.7658295034131467
 40
0.7658295034131467
 40
0.8528444940445218
 40
0.8528444940445218
 40
0.8528444940445218
 40
0.8842181950900659
 40
0.8842181950900659
 40
0.8842181950900659
 40
0.9369787829408439
 40
0.9369787829408439
 40
0.9369787829408439
 40
0.9605740351342819
 40
0.9605740351342819
 40
0.9605740351342819
 40
1.0
 40
1.0
 40
1.0
 40
1.0
 10
8.0277499999999993
 20
-0.8878333333333333
 30
0.0
 10
8.0272429322056311
 20
-0.8878913388542079
 30
0.0
 10
8.0267422304284022
 20
-0.8880131246657068
 30
0.0
 10
8.0262499999999992
 20
-0.8881666666666667
 30
0.0
 10
8.0250202928777217
 20
-0.8885502506168945
 30
0.0
 10
8.0240870384629783
 20
-0.8896537128855601
 30
0.0
 10
8.0228333333333328
 20
-0.8899166666666667
 30
0.0
 10
8.0216086177980674
 20
-0.8901735401316966
 30
0.0
 10
8.0203104455672918
 20
-0.8900544285006076
 30
0.0
 10
8.0190833333333327
 20
-0.8899166666666667
 30
0.0
 10
8.0183881034192979
 20
-0.8898386166356118
 30
0.0
 10
8.01769468425457
 20
-0.8895785357034709
 30
0.0
 10
8.0169999999999995
 20
-0.8895
 30
0.0
 10
8.0161444030365079
 20
-0.8894032727329383
 30
0.0
 10
8.015263683428909
 20
-0.8893502704521387
 30
0.0
 10
8.0144166666666656
 20
-0.8899166666666667
 30
0.0
 10
8.0142439455345809
 20
-0.8900321644935612
 30
0.0
 10
8.0141732953085789
 20
-0.8901786105318539
 30
0.0
 10
8.0140833333333337
 20
-0.8903333333333333
 30
0.0
 10
8.0137626429655402
 20
-0.890884878716559
 30
0.0
 10
8.01348908062538
 20
-0.8914525090632266
 30
0.0
 10
8.0131666666666668
 20
-0.892
 30
0.0
 10
8.0129120207861284
 20
-0.8924324140066307
 30
0.0
 10
8.0126524441846954
 20
-0.8928494114666876
 30
0.0
 10
8.0123333333333324
 20
-0.89325
 30
0.0
 10
8.0115615578994639
 20
-0.8942188306987349
 30
0.0
 10
8.0105353408178779
 20
-0.8948393219381948
 30
0.0
 10
8.0094166666666666
 20
-0.8954166666666666
 30
0.0
 10
8.0086053086255369
 20
-0.8958354063751346
 30
0.0
 10
8.0077749577691719
 20
-0.8960758669795829
 30
0.0
 10
8.0069166666666671
 20
-0.89625
 30
0.0
 10
8.005831004754917
 20
-0.8964702627841451
 30
0.0
 10
8.0046462218441814
 20
-0.8964106330113829
 30
0.0
 10
8.0035833333333333
 20
-0.89625
 30
0.0
 10
8.0026798780991122
 20
-0.8961134619403245
 30
0.0
 10
8.0019401646225763
 20
-0.895033687212897
 30
0.0
 10
8.0010833333333338
 20
-0.8949166666666666
 30
0.0
 10
8.0000442727718948
 20
-0.8947747584100563
 30
0.0
 10
7.9987890605614371
 20
-0.8951926385086017
 30
0.0
 10
7.9977499999999999
 20
-0.8957499999999999
 30
0.0
 10
7.9973753613867418
 20
-0.8959509595436205
 30
0.0
 10
7.9972942070133186
 20
-0.8965220065053313
 30
0.0
 10
7.9969166666666665
 20
-0.8966666666666666
 30
0.0
 10
7.9962817638670938
 20
-0.8969099390539301
 30
0.0
 10
7.9954672411248815
 20
-0.8968246264386757
 30
0.0
 10
7.9948333333333332
 20
-0.8966666666666666
 30
0.0
 10
7.9945498411506595
 20
-0.8965960249090822
 30
0.0
 10
7.9942847308666725
 20
-0.8962718803730015
 30
0.0
 10
7.9939999999999998
 20
-0.89625
 30
0.0
 10
7.993524235254891
 20
-0.8962134394745969
 30
0.0
 10
7.9929658408968871
 20
-0.896354592182929
 30
0.0
 10
7.9924999999999997
 20
-0.8966666666666666
 30
0.0
  0
LINE
  5
5BD
100
AcDbEntity
  8
5
  6
DASHDOT
 62
     2
100
AcDbLine
 10
7.968167
 20
-0.724417
 30
0.0
 11
8.0175
 21
-0.921917
 31
0.0
  0
TEXT
  5
5BE
100
AcDbEntity
  8
1
  6
CONTINUOUS
 62
     2
100
AcDbText
 10
8.442
 20
-1.361917
 30
0.0
 40
0.016666
  1
STANDARD SHEET BR-PP2
  7
TXT
210
0.0
220
0.0
230
1.0
100
AcDbText
  0
LINE
  5
5BF
100
AcDbEntity
  8
1
  6
CONTINUOUS
 62
     2
100
AcDbLine
 10
6.669417
 20
-0.826917
 30
0.0
 11
6.69075
 21
-0.826917
 31
0.0
  0
LINE
  5
5C0
100
AcDbEntity
  8
1
  6
CONTINUOUS
 62
     2
100
AcDbLine
 10
6.669417
 20
-0.826917
 30
0.0
 11
6.669417
 21
-0.84825
 31
0.0
  0
TEXT
  5
5C1
100
AcDbEntity
  8
1
  6
CONTINUOUS
 62
   110
100
AcDbText
 10
6.677083
 20
-0.82525
 30
0.0
 40
0.008333
  1
3
  7
TXT
 72
     1
 11
6.67975
 21
-0.82525
 31
0.0
210
0.0
220
0.0
230
1.0
100
AcDbText
  0
TEXT
  5
5C2
100
AcDbEntity
  8
1
  6
CONTINUOUS
 62
   110
100
AcDbText
 10
6.657083
 20
-0.842083
 30
0.0
 40
0.008333
  1
12
  7
TXT
 72
     2
 11
6.667833
 21
-0.837917
 31
0.0
210
0.0
220
0.0
230
1.0
100
AcDbText
 73
     2
  0
LINE
  5
5C3
100
AcDbEntity
  8
1
  6
CONTINUOUS
 62
     2
100
AcDbLine
 10
7.352333
 20
-0.818417
 30
0.0
 11
7.352333
 21
-0.83975
 31
0.0
  0
TEXT
  5
5C4
100
AcDbEntity
  8
1
  6
CONTINUOUS
 62
   110
100
AcDbText
 10
7.340667
 20
-0.816833
 30
0.0
 40
0.008333
  1
3
  7
TXT
 72
     1
 11
7.343333
 21
-0.816833
 31
0.0
210
0.0
220
0.0
230
1.0
100
AcDbText
  0
TEXT
  5
5C5
100
AcDbEntity
  8
1
  6
CONTINUOUS
 62
   110
100
AcDbText
 10
7.353833
 20
-0.832833
 30
0.0
 40
0.008333
  1
12
  7
TXT
 11
7.353833
 21
-0.828667
 31
0.0
210
0.0
220
0.0
230
1.0
100
AcDbText
 73
     2
  0
LINE
  5
5C6
100
AcDbEntity
  8
1
  6
CONTINUOUS
 62
     2
100
AcDbLine
 10
7.335667
 20
-0.818417
 30
0.0
 11
7.352333
 21
-0.818417
 31
0.0
  0
LINE
  5
5C7
100
AcDbEntity
  8
1
  6
CONTINUOUS
 62
     2
100
AcDbLine
 10
8.02975
 20
-0.82225
 30
0.0
 11
8.02975
 21
-0.843583
 31
0.0
  0
TEXT
  5
5C8
100
AcDbEntity
  8
1
  6
CONTINUOUS
 62
   110
100
AcDbText
 10
8.018083
 20
-0.820667
 30
0.0
 40
0.008333
  1
3
  7
TXT
 72
     1
 11
8.02075
 21
-0.820667
 31
0.0
210
0.0
220
0.0
230
1.0
100
AcDbText
  0
TEXT
  5
5C9
100
AcDbEntity
  8
1
  6
CONTINUOUS
 62
   110
100
AcDbText
 10
8.03125
 20
-0.836667
 30
0.0
 40
0.008333
  1
12
  7
TXT
 11
8.03125
 21
-0.8325
 31
0.0
210
0.0
220
0.0
230
1.0
100
AcDbText
 73
     2
  0
LINE
  5
5CA
100
AcDbEntity
  8
1
  6
CONTINUOUS
 62
     2
100
AcDbLine
 10
8.013083
 20
-0.82225
 30
0.0
 11
8.02975
 21
-0.82225
 31
0.0
  0
LINE
  5
5CB
100
AcDbEntity
  8
1
  6
CONTINUOUS
 62
     2
100
AcDbLine
 10
7.725
 20
-0.821083
 30
0.0
 11
7.725
 21
-0.842417
 31
0.0
  0
TEXT
  5
5CC
100
AcDbEntity
  8
1
  6
CONTINUOUS
 62
   110
100
AcDbText
 10
7.729333
 20
-0.818833
 30
0.0
 40
0.008333
  1
3
  7
TXT
 72
     1
 11
7.732
 21
-0.818833
 31
0.0
210
0.0
220
0.0
230
1.0
100
AcDbText
  0
TEXT
  5
5CD
100
AcDbEntity
  8
1
  6
CONTINUOUS
 62
   110
100
AcDbText
 10
7.712667
 20
-0.83625
 30
0.0
 40
0.008333
  1
12
  7
TXT
 72
     2
 11
7.723417
 21
-0.832083
 31
0.0
210
0.0
220
0.0
230
1.0
100
AcDbText
 73
     2
  0
LINE
  5
5CE
100
AcDbEntity
  8
1
  6
CONTINUOUS
 62
     2
100
AcDbLine
 10
7.725
 20
-0.821083
 30
0.0
 11
7.738667
 21
-0.821083
 31
0.0
  0
LINE
  5
5CF
100
AcDbEntity
  8
1
  6
CONTINUOUS
 62
   253
100
AcDbLine
 10
8.129667
 20
-0.0885
 30
0.0
 11
8.129667
 21
0.019333
 31
0.0
  0
LINE
  5
5D0
100
AcDbEntity
  8
1
  6
CONTINUOUS
 62
   253
100
AcDbLine
 10
8.235167
 20
-0.0885
 30
0.0
 11
8.235167
 21
-0.018417
 31
0.0
  0
LINE
  5
5D1
100
AcDbEntity
  8
1
  6
CONTINUOUS
 62
   253
100
AcDbLine
 10
8.411083
 20
0.019333
 30
0.0
 11
8.411083
 21
-0.0885
 31
0.0
  0
TEXT
  5
5D2
100
AcDbEntity
  8
1
  6
CONTINUOUS
 62
   253
100
AcDbText
 10
8.797417
 20
-1.003083
 30
0.0
 40
0.008333
  1
602-2
  7
TXT
210
0.0
220
0.0
230
1.0
100
AcDbText
  0
TEXT
  5
5D3
100
AcDbEntity
  8
1
  6
CONTINUOUS
 62
   253
100
AcDbText
 10
8.927333
 20
-1.011333
 30
0.0
 40
0.008333
  1
STEEL BARS
  7
TXT
210
0.0
220
0.0
230
1.0
100
AcDbText
  0
TEXT
  5
5D4
100
AcDbEntity
  8
1
  6
CONTINUOUS
 62
   253
100
AcDbText
 10
9.140833
 20
-1.006083
 30
0.0
 40
0.008333
  1
LB
  7
TXT
210
0.0
220
0.0
230
1.0
100
AcDbText
  0
TEXT
  5
5D5
100
AcDbEntity
  8
1
  6
CONTINUOUS
 62
   253
100
AcDbText
 10
8.88825
 20
-0.997083
 30
0.0
 40
0.008333
  1
EPOXY COATED REINFORCING
  7
TXT
210
0.0
220
0.0
230
1.0
100
AcDbText
  0
INSERT
  5
5D6
100
AcDbEntity
  8
1
  6
CONTINUOUS
 62
     2
100
AcDbBlockReference
  2
CIRCLE
 10
7.441083
 20
-0.789667
 30
0.0
 50
90.0
210
0.0
220
0.0
230
1.0
  0
INSERT
  5
5D7
100
AcDbEntity
  8
1
  6
CONTINUOUS
 62
     2
100
AcDbBlockReference
  2
CIRCLE
 10
8.10125
 20
-0.790167
 30
0.0
 50
90.0
210
0.0
220
0.0
230
1.0
  0
TEXT
  5
5D8
100
AcDbEntity
  8
1
  6
CONTINUOUS
 62
   110
100
AcDbText
 10
8.10575
 20
-0.793417
 30
0.0
 40
0.008333
  1
T =      
 50
90.0
  7
TXT
210
0.0
220
0.0
230
1.0
100
AcDbText
  0
TEXT
  5
5D9
100
AcDbEntity
  8
1
  6
CONTINUOUS
 62
   110
100
AcDbText
 10
7.445417
 20
-0.79325
 30
0.0
 40
0.008333
  1
T =      
 50
90.0
  7
TXT
210
0.0
220
0.0
230
1.0
100
AcDbText
  0
TEXT
  5
5DA
100
AcDbEntity
  8
1
  6
CONTINUOUS
 62
   110
100
AcDbText
 10
8.274
 20
-0.832083
 30
0.0
 40
0.008333
  1
NOTE:  THIS SHEET TO BE USED WITH STANDARD
  7
TXT
 11
8.274
 21
-0.827917
 31
0.0
210
0.0
220
0.0
230
1.0
100
AcDbText
 73
     2
  0
TEXT
  5
5DB
100
AcDbEntity
  8
1
  6
CONTINUOUS
 62
   253
100
AcDbText
 10
8.817917
 20
0.004167
 30
0.0
 40
0.008333
  1
T
  7
TXT
 72
     1
 11
8.820583
 21
0.004167
 31
0.0
210
0.0
220
0.0
230
1.0
100
AcDbText
  0
TEXT
  5
5DC
100
AcDbEntity
  8
1
  6
CONTINUOUS
 62
   253
100
AcDbText
 10
8.892417
 20
0.003167
 30
0.0
 40
0.008333
  1
THICKNESS OF FOOTING
  7
TXT
 72
     4
 11
8.96975
 21
0.007333
 31
0.0
210
0.0
220
0.0
230
1.0
100
AcDbText
  0
TEXT
  5
5DD
100
AcDbEntity
  8
1
  6
CONTINUOUS
 62
   253
100
AcDbText
 10
9.109333
 20
0.012833
 30
0.0
 40
0.008333
  1
SEE STANDARD
  7
TXT
 72
     4
 11
9.156833
 21
0.017
 31
0.0
210
0.0
220
0.0
230
1.0
100
AcDbText
  0
TEXT
  5
5DE
100
AcDbEntity
  8
1
  6
CONTINUOUS
 62
   253
100
AcDbText
 10
9.109417
 20
-0.002833
 30
0.0
 40
0.008333
  1
SHEET BR-PP3
  7
TXT
 72
     4
 11
9.156083
 21
0.001333
 31
0.0
210
0.0
220
0.0
230
1.0
100
AcDbText
  0
TEXT
  5
5DF
100
AcDbEntity
  8
1
  6
CONTINUOUS
 62
     2
100
AcDbText
 10
8.91075
 20
-1.362167
 30
0.0
 40
0.020834
  1
PIER ON PILES DETAILS
  7
TXT
 11
8.91075
 21
-1.35175
 31
0.0
210
0.0
220
0.0
230
1.0
100
AcDbText
 73
     2
  0
LINE
  5
5E0
100
AcDbEntity
  8
1
  6
CONTINUOUS
 62
   131
100
AcDbLine
 10
6.8825
 20
-1.156417
 30
0.0
 11
7.139
 21
-1.156417
 31
0.0
  0
LINE
  5
5E1
100
AcDbEntity
  8
1
  6
CONTINUOUS
 62
   131
100
AcDbLine
 10
6.897333
 20
-0.066167
 30
0.0
 11
7.169167
 21
-0.066167
 31
0.0
  0
TEXT
  5
5E2
100
AcDbEntity
  8
1
  6
CONTINUOUS
 62
   110
100
AcDbText
 10
7.08975
 20
-0.780833
 30
0.0
 40
0.008333
  1
P505
  7
TXT
210
0.0
220
0.0
230
1.0
100
AcDbText
  0
TEXT
  5
5E3
100
AcDbEntity
  8
1
  6
CONTINUOUS
 62
   110
100
AcDbText
 10
7.097333
 20
-0.769667
 30
0.0
 40
0.008333
  1
OR
  7
TXT
210
0.0
220
0.0
230
1.0
100
AcDbText
  0
TEXT
  5
5E4
100
AcDbEntity
  8
1
  6
CONTINUOUS
 62
   110
100
AcDbText
 10
6.756167
 20
-0.781667
 30
0.0
 40
0.008333
  1
P505
  7
TXT
210
0.0
220
0.0
230
1.0
100
AcDbText
  0
TEXT
  5
5E5
100
AcDbEntity
  8
1
  6
CONTINUOUS
 62
   110
100
AcDbText
 10
6.764667
 20
-0.769583
 30
0.0
 40
0.008333
  1
OR
  7
TXT
210
0.0
220
0.0
230
1.0
100
AcDbText
  0
TEXT
  5
5E6
100
AcDbEntity
  8
1
  6
CONTINUOUS
 62
   110
100
AcDbText
 10
7.856
 20
-0.8
 30
0.0
 40
0.008333
  1
P505
  7
TXT
210
0.0
220
0.0
230
1.0
100
AcDbText
  0
TEXT
  5
5E7
100
AcDbEntity
  8
1
  6
CONTINUOUS
 62
   110
100
AcDbText
 10
7.86625
 20
-0.788333
 30
0.0
 40
0.008333
  1
OR
  7
TXT
210
0.0
220
0.0
230
1.0
100
AcDbText
  0
LINE
  5
5E8
100
AcDbEntity
  8
1
  6
CONTINUOUS
 62
   131
100
AcDbLine
 10
7.290583
 20
-0.399833
 30
0.0
 11
7.290583
 21
-0.35475
 31
0.0
  0
TEXT
  5
5E9
100
AcDbEntity
  8
1
  6
CONTINUOUS
 62
   253
100
AcDbText
 10
9.117333
 20
0.128083
 30
0.0
 40
0.008333
  1
ON BR-PP1
  7
TXT
210
0.0
220
0.0
230
1.0
100
AcDbText
  0
LINE
  5
5EA
100
AcDbEntity
  8
1
  6
CONTINUOUS
 62
   253
100
AcDbLine
 10
9.1205
 20
0.075167
 30
0.0
 11
9.1965
 21
0.075167
 31
0.0
  0
TEXT
  5
5EB
100
AcDbEntity
  8
1
  6
CONTINUOUS
 62
   110
100
AcDbText
 10
8.318
 20
-0.847167
 30
0.0
 40
0.008333
  1
SHEETS BR-PP1 AND BR-PP4.
  7
TXT
 11
8.318
 21
-0.843
 31
0.0
210
0.0
220
0.0
230
1.0
100
AcDbText
 73
     2
  0
TEXT
  5
5EC
100
AcDbEntity
  8
1
  6
CONTINUOUS
 62
     2
100
AcDbText
 10
8.51475
 20
-1.331833
 30
0.0
 40
0.014583
  1
(SQUARE NOSE)
  7
TXT
210
0.0
220
0.0
230
1.0
100
AcDbText
  0
TEXT
  5
5ED
100
AcDbEntity
  8
1
  6
CONTINUOUS
 62
   110
100
AcDbText
 10
6.757083
 20
-0.756667
 30
0.0
 40
0.008333
  1
P511
  7
TXT
210
0.0
220
0.0
230
1.0
100
AcDbText
  0
TEXT
  5
5EE
100
AcDbEntity
  8
1
  6
CONTINUOUS
 62
   110
100
AcDbText
 10
7.08975
 20
-0.7585
 30
0.0
 40
0.008333
  1
P511
  7
TXT
210
0.0
220
0.0
230
1.0
100
AcDbText
  0
TEXT
  5
5EF
100
AcDbEntity
  8
1
  6
CONTINUOUS
 62
   110
100
AcDbText
 10
7.857417
 20
-0.776
 30
0.0
 40
0.008333
  1
P511
  7
TXT
210
0.0
220
0.0
230
1.0
100
AcDbText
  0
TEXT
  5
5F0
100
AcDbEntity
  8
1
  6
CONTINUOUS
 62
    91
100
AcDbText
 10
8.823417
 20
-0.280833
 30
0.0
 40
0.016666
  1
STEM-BILL OF REINFORCING STEEL
  7
TXT
210
0.0
220
0.0
230
1.0
100
AcDbText
  0
TEXT
  5
5F1
100
AcDbEntity
  8
1
  6
CONTINUOUS
 62
    91
100
AcDbText
 10
8.844917
 20
-0.87475
 30
0.0
 40
0.016666
  1
STEM-ESTIMATE OF QUANTITIES
  7
TXT
210
0.0
220
0.0
230
1.0
100
AcDbText
  0
TEXT
  5
5F2
100
AcDbEntity
  8
1
  6
CONTINUOUS
 62
     2
100
AcDbText
 10
8.518833
 20
-1.311333
 30
0.0
 40
0.014583
  1
STEM DETAILS
  7
TXT
210
0.0
220
0.0
230
1.0
100
AcDbText
  0
TEXT
  5
5F3
100
AcDbEntity
  8
1
  6
CONTINUOUS
 62
   230
100
AcDbText
 10
8.789833
 20
-1.239167
 30
0.0
 40
0.01
  1
12-89
  7
TXT
 72
     4
 11
8.810167
 21
-1.234167
 31
0.0
210
0.0
220
0.0
230
1.0
100
AcDbText
  0
TEXT
  5
5F4
100
AcDbEntity
  8
1
  6
CONTINUOUS
 62
   230
100
AcDbText
 10
9.3625
 20
-1.1625
 30
0.0
 40
0.01
  1
D.W.W.
  7
TXT
 72
     4
 11
9.384
 21
-1.1575
 31
0.0
210
0.0
220
0.0
230
1.0
100
AcDbText
  0
INSERT
  5
5FB
100
AcDbEntity
  8
16
  6
CONTINUOUS
 62
     2
100
AcDbBlockReference
  2
NOTE
 10
2.343333
 20
-2.34675
 30
0.0
 41
0.04
 42
0.04
210
0.0
220
0.0
230
1.0
  0
TEXT
  5
5FC
100
AcDbEntity
  8
1
  6
CONTINUOUS
 62
   253
100
AcDbText
 10
9.1485
 20
0.034083
 30
0.0
 40
0.008333
  1
A-6"
  7
TXT
210
0.0
220
0.0
230
1.0
100
AcDbText
  0
TEXT
  5
5FD
100
AcDbEntity
  8
1
  6
CONTINUOUS
 62
   253
100
AcDbText
 10
8.798917
 20
-0.943083
 30
0.0
 40
0.008333
  1
601-2
  7
TXT
210
0.0
220
0.0
230
1.0
100
AcDbText
  0
TEXT
  5
5FE
100
AcDbEntity
  8
1
  6
CONTINUOUS
 62
   253
100
AcDbText
 10
8.913
 20
-0.418333
 30
0.0
 40
0.008333
  1
(A+1)*2
  7
TXT
210
0.0
220
0.0
230
1.0
100
AcDbText
  0
TEXT
  5
5FF
100
AcDbEntity
  8
1
  6
CONTINUOUS
 62
   253
100
AcDbText
 10
8.440833
 20
-1.183167
 30
0.0
 40
0.005417
  1
APPROVED
  7
TXT
 11
8.440833
 21
-1.17775
 31
0.0
210
0.0
220
0.0
230
1.0
100
AcDbText
 73
     3
  0
TEXT
  5
600
100
AcDbEntity
  8
1
  6
CONTINUOUS
 62
   253
100
AcDbText
 10
8.76225
 20
-1.183167
 30
0.0
 40
0.005417
  1
DATE
  7
TXT
 11
8.76225
 21
-1.17775
 31
0.0
210
0.0
220
0.0
230
1.0
100
AcDbText
 73
     3
  0
LINE
  5
601
100
AcDbEntity
  8
1
  6
DOT
 62
   253
100
AcDbLine
 10
8.48475
 20
-1.186083
 30
0.0
 11
8.756667
 21
-1.186083
 31
0.0
  0
LINE
  5
602
100
AcDbEntity
  8
1
  6
DOT
 62
   253
100
AcDbLine
 10
8.784833
 20
-1.186083
 30
0.0
 11
8.848167
 21
-1.186083
 31
0.0
  0
INSERT
  5
603
100
AcDbEntity
  8
1
  6
CONTINUOUS
 62
   110
100
AcDbBlockReference
  2
NOTE
 10
8.311833
 20
-0.782167
 30
0.0
210
0.0
220
0.0
230
1.0
  0
TEXT
  5
604
100
AcDbEntity
  8
1
  6
CONTINUOUS
 62
   230
100
AcDbText
 10
8.766417
 20
-1.264083
 30
0.0
 40
0.01
  1
9-92
  7
TXT
 72
     4
 11
8.783583
 21
-1.259083
 31
0.0
210
0.0
220
0.0
230
1.0
100
AcDbText
  0
TEXT
  5
605
100
AcDbEntity
  8
1
  6
CONTINUOUS
 62
   230
100
AcDbText
 10
8.766833
 20
-1.281833
 30
0.0
 40
0.01
  1
2-94
  7
TXT
 72
     4
 11
8.784
 21
-1.276833
 31
0.0
210
0.0
220
0.0
230
1.0
100
AcDbText
  0
ENDSEC
  0
SECTION
  2
OBJECTS
  0
DICTIONARY
  5
19
100
AcDbDictionary
  3
ACAD_GROUP
350
1A
  3
ACAD_MLINESTYLE
350
1B
  0
DICTIONARY
  5
1A
102
{ACAD_REACTORS
330
19
102
}
100
AcDbDictionary
  0
DICTIONARY
  5
1B
102
{ACAD_REACTORS
330
19
102
}
100
AcDbDictionary
  3
STANDARD
350
1C
  0
MLINESTYLE
  5
1C
102
{ACAD_REACTORS
330
1B
102
}
100
AcDbMlineStyle
  2
STANDARD
 70
     0
  3

 62
     0
 51
90.0
 52
90.0
 71
     2
 49
0.5
 62
   256
  6
BYLAYER
 49
-0.5
 62
   256
  6
BYLAYER
  0
ENDSEC
  0
EOF
